Give Kudos?
Are you sure you want to give kudos to texasisalive?

Add To Songbook?
Are you sure you want to add this song to your songbook?


3,420 bands | 16,457 songs
Search: Register FREE! | Login
Browse Songs:
Browse Bands:
Tool Panel
Discuss This Song

1 2 3 4 5



Wallflowers - One Headlight (Bass)
Submitter: texasisalive (4) on 8/21/03
Month Views: 9 | Total Views: 2,077
Moderator: jackshaw3 | Report This Song?
Song Tools

Comment

Songbook

Kudos

Show Chords

Print

The Wallflowers
One Head Light


    VERSES

G---------------------|--------------------|--------------------|-------
D---------------------|--------------------|--------------------|-------
A---------------------|--5--5--5--5--5--5--|--------------------|-------
E---3--3--3--3--3--3--|--------------------|--2--2--2--2--2--2--|-------
                                                                        

                           PRE-CHORUS
            
G----------------------||--------------------|--------------------|-----
D---------------------*||--------------------|--------------------|-----
A---2--2--2--0--0--0--*||--------------------|--------------------|-----
E----------------------||--3--3--3--3--3--3--|--3--3--3--3--3--3--|-----
                                                                        

                                                CHORUS
            
G---------------------|--------------------||---------------------|-----
D---------------------|--------------------||*--------------------|-----
A---------------------|--------------------||*--------------------|-----
E---2--2--2--2--2--2--|--2--2--2--2--2--2--||---3--3--3--3--3--3--|-----
                                                                        

      2x                          
G---------------------|--------------|------||--------------------------
D---------------------|--------------|-----*||--------------------------
A---5--5--5--5--5--5--|-----------2--|--0--*||--------------------------
E---------------------|--0--2--3-----|------||--------------------------

 Comments (click here to add a non-facebook comment)
Home | FAQs | Privacy | Terms | Contact
Top 100 Tab Sites