Give Kudos?
Are you sure you want to give kudos to alblues?

Add To Songbook?
Are you sure you want to add this song to your songbook?


3,050 bands | 13,601 songs
Search: Register FREE! | Login
Browse Songs:
Browse Bands:
Tool Panel
Discuss This Song

1 2 3 4 5





Van Morrison - Baby Please Dont Go (Tab)
Submitter: alblues (25) on 1/27/06 1 comment
Month Views: 97 | Total Views: 5,395
Moderator: bigrig1999 | Report This Song?
Song Tools

Comment

Songbook

Kudos

Show Chords

Print

      VAN MORRISON      BABY PLEASE DONT GO

          TABMAN ALBLUES OR ALFISHER

           DAYTONA BEACH FLORIDA USA


KEY E  

  THIS SIGN MEANS TO MUTE **

 INTRO
-------3--0----0------------
-0-3-0------3/-5------------
----------------------------
----------------------------
----------------------------
----------------------------
               ~~~~
--------3--0----------------
-0-3-0-------3--------------
---------------3------------
----------------------------
----------------------------
----------------------------

-----3--0----0--------------
-0-3------3----0------------
----------------------------
----------------------------
----------------------------
----------------------------
                           MUTE
---------------------------*-
----3------------------------
-2B---2B-0---2-2-------------
-----------2-----2-2---2-----
-------------------------2---
---------------------------0-
                           * 
         =  RIFF-1        *
---------=-------------------
---------=-------------------
---------=-------------------PLAY TO BEAT
-------0-=--------0----------RIFF-1
-0-H-2---=---0H-2---2-0------
---------=---------------0---
                         *
RIFF-2
----------------
-2B-------------
-2B--0--2-------
--------2-------
----------------
----------------

RIFF-3
---0----------------
--------------------
-2B---2 HP-0--------
-------------2-2----
--------------------
--------------------

1 NOTE THANG-1
-------
-------
-------
-------
-------
--0----
  *

1 NOTE THANG-2

------
--0---
------
------
------
------

RIFF-4                  2X
-------3---0---12/---0-----
-------2---5---12/---5-----
---------------------------
---------------------------
-0-------------------------
---0-----------------------
 * *

RIFF-5              ~~~~~~
--0-0-0------3-0------------
--5-5-5--0-3------3---------
--------------------3-------
----------------------------
----------------------------
----------------------------

-----3-0---0-------------------
-0-3-----3---3-------3---------
------------------2B---2B--0---
-------------------------------
-------------------------------
-------------------------------

----------------------------
----------------------------
---2-0----------------------
-2-----2-2---2--------------
--------------2--0----------
-------------------0--------
             * * * *  




RIFF-6
-------------------------
-------------------------
-------------------------TO BEAT
-------0-----------------
--0H-2---2--0------------
--------------0-----12/--
  *  * * *  * *  

RIFF-7
--------0----0------------------------
-0HP-3----3-------3-------------------
---------------2B---2-----2-2-0-------
-----------------------2-2-----2-2----
--------------------------------------
--------------------------------------

3 NOTE THANG  ~~~~~~~~~
--12/---12/------------
-------------4---------
-----------------------
-----------------------
-----------------------

RIFF-8
----3-0---------------------
-0-3---3-----3--------------
----------2B---2B-0--2------
--------------------2--2-2--
----------------------------
----------------------------

------------------------12/-
---------------------------
---------------------------
-2-0-----------------------
-----2-0-------------------END
---------0-----------------
RIFF-8 GOES WITH THE VOCALS
AT THE SAME TIME


RIFF-9 WITH HARMONICA

-------------------
-------------------
-------------------
------0------------
-0H-2---2--0-------
--------------0----
AND IM CRYING

==============================
==============================


INTRO

RIFF-1                  RIFF-2

     BABY PLEASE DONT GO

                   RIFF-3
BABY PLEASE DONT GO
 
      * NOTE-1
BABY PLEASE DONT GO

DOWN TO NEW ORLEANS  YOU KNOW I LOVE

   * NOTE-2                   RIFF-4--2X
YOU SO      BABY PLESE DONT GO


BABY YOUR MIND DONE GONE- RIFF-1

WELL YOUR MIND DONE GONE -RIFF-2

              *NOTE-1
WELL YOUR MIND DONE GONE AT THE COUNTY

FARM  YOU HAD THE SHACKLES ON

BABY PLEASE DONT GO RIFF-4--2X



BEFORE I BE YOUR DOG- RIFF-1

BEFORE I BE YOUR DOG--RIFF-2

        *NOTE-1
BEFORE I BE YOUR DOG

TO GET YOU WAYDOWN HERE

I MAKE YOU WALK ALONE

BABY PLEASE DONT GO RIFF-4 -2X


RIFF-5 ==========

RIFF-6===========


BABY PLEASE DONT GO 

BABY PLEASE DONT GO-- NOTE-2

     RIFF-7
BABY PLEASE DONT GO DOWN TO NEW ORLEAN

BABY PLEASE DONT GO




GONNA BE A DOG  GONNA BE A DOG

RIFF-8

GONNA BE A DOG GET YOU WAY 

DOWN HERE MAKE YOU WALK ALONE

BABY PLEASE DONT GO


RIFF-6
KNOW HOW I FEEL RIHT NOW 

MY BABY LEAVIN ON THAT MIDNIGHT TRAIN

RIFF-9
AND IM CRYING       HARMONIC/W RIFF-9


BABY PLEASE DONT GO RIFF-1

BABY PLEASE DONT GO  RIFF-2

     1-N0TE
BABY PLEASE DONT GO DOWN TO NEW ORLEANS 

YOU KNOW I LOVE YOU SO

BABY PLEASE DONT GO  RIFF-4


BEFOR I BE A DOG RIFF-1

BEFORE  BE A DOG RIFF-2

      1-NOTE
BEFORE BE A DOG

GET YOU WAY DOWN HERE

I MAKE YOU WALK ALONE

BABY PLEASE DONT GO RIFF  -4

INTRO  

========================
=======================
=======================

LISTEN TO THE SONG TO GET
 
THE ORDER DOWN  GOOD LUCK




 Comments (click here to add a non-facebook comment)
Great work,,well done!!
-aussief | 7/10/2009
Home | FAQs | Privacy | Terms | Contact
Top 100 Tab Sites