Give Kudos?
Are you sure you want to give kudos to Rondo Fondu?

Add To Songbook?
Are you sure you want to add this song to your songbook?


3,422 bands | 16,457 songs
Search: Register FREE! | Login
Browse Songs:
Browse Bands:
Tool Panel
Discuss This Song

1 2 3 4 5



Van Halen - Hot For Teacher - 2 Guitars (Tab)
Submitter: Rondo Fondu (14) on 4/22/04 1 comment
Month Views: 17 | Total Views: 3,436
Moderator: EMRLDEYZS | Report This Song?
Song Tools

Comment

Songbook

Kudos

Show Chords

Print

Hot For Teacher
by E. Van Halen, A. Van Halen, Micheal Anthony & David Lee Roth


Gtr I Electric w Distortion
Gtr II Clean Electric

 Drums
  H=126(8=s8)
 4/4
  Gtr I
                                                       |-3-|
  Wx12           Wx6          H    Q  Q     Q    H     E E E
|-------------||------------|-------------|------------------||
|-------------||------------|-------------|------------------||
|-------------||------------|-------------|------------------||
|-------------||------------|-------------|------------------||
|-------------||------------|---------x\--|-x\---------0h3h7-||
|-------------||------------|---------x\--|-x\--15\----------||


 Intro
   T            T              T            T
   |-3-| |-3-|  |-3-| |-3-|    |-3-| |-3-|  |-3-| |-3-|
   E E E E E E  E E E E E E    E E E E E E  E E E E E E
|---------------------------|---------------------------|
|---------------------------|---------------------------|
|---------------------------|---------------------------|
|---------------------------|---------------------------|
|-12p7p3p0h3h7-12p7p3p0h3h7-|-12p7p3p0h3h7-12p7p3p0h5h9-|
|---------------------------|---------------------------|


   T            T
   |-3-| |-3-|  |-3-| |-3-|
   E E E E E E  E E E E E E
|----------------------------|
|----------------------------|
|----------------------------|
|----------------------------|
|-12p9p5p0h5h9-12p9p5p0h5h9--|
|----------------------------|


   T            T     T
   |-3-| |-3-|          |-3-|
   E E E E E E  S E   S E E E
|-----------------------------|
|-----------------------------|
|-----------------------------|
|--------------------12p0h3h7-|
|-12p9p5p0h5h9-12p9\----------|
|-----------------------------|


   T            T              T            T
   |-3-| |-3-|  |-3-| |-3-|    |-3-| |-3-|  |-3-| |-3-|
   E E E E E E  E E E E E E    E E E E E E  E E E E E E
|---------------------------|----------------------------|
|---------------------------|----------------------------|
|---------------------------|----------------------------|
|-12p7p3p0h3h7-12p7p3p0h3h7-|-12p7p3p0h3h7-12p7p3p0h5h9--|
|---------------------------|----------------------------|
|---------------------------|----------------------------|


   T            T            T
   |-3-| |-3-|  |-3-|
   E E E E E E  E E E S S S  S
|------------------------------|
|------------------------------|
|------------------------------|
|-12p9p5p0h5h9-12p9p5p0h5h9-12p|
|------------------------------|
|------------------------------|


                 T          T            T
           |--3--| |-3-|    |-3-| |-3-|  |-3-| |-3-|
  Q  +Q   +E  E  E E E E    E E E E E E  E E E E E E
|------------------------|---------------------------|
|------------------------|---------------------------|
|---------------12p0h3h7-|-12p7p3p0h3h7-12p7p3p0h5h9-|
|-9--(9)--(9)p7----------|---------------------------|
|------------------------|---------------------------|
|------------------------|---------------------------|


   T            T              T            T            T   ~~~~~~~~~ T
   |-3-| |-3-|  |-3-| |-3-|    |-3-| |-3-|  |-3-|
   E E E E E E  E E E E E E    E E E E E E  E E E S S S  S   H    +E   E E E
|---------------------------|------------------------------|----------12p5h8-|
|---------------------------|------------------------------|-----------------|
|-12p9p5p0h5h9-12p9p5p0h3h7-|-12p7p3p0h3h7-12p7p3p0h5h9-12p|=9----(9)--------|
|---------------------------|------------------------------|-----------------|
|---------------------------|------------------------------|-----------------|
|---------------------------|------------------------------|-----------------|


   T          T          T            T          T
           |-3--| |-3-|  |-3-|   |-3--|          |-3-|
   S S S S E  E E E E E  E E E   E E  E S S S S  E E E S E S    +W
|-12p8p7p5---------------------|-----------------------------||--------|
|----------8-12p8p7p5----------|-----------------------------||--------|
|---------------------8-12p8p7p|=5-------------------------2-||-(2)----|
|------------------------------|---8-12p8p7p5--------------2-||-(2)----|
|------------------------------|--------------8-12p8p7p5p0---||--------|
|------------------------------|---------------------------2-||-(2)----|


  PM----------|                                                  PM----|
                                                                   |-3-|
  E E E E E E E E   E Q.   +Q   e e   Q  Q  E E E a E   +H     E E E E E
|-----------------|-----------------|-----------------|-------------------|
|-----------------|-----------------|-----------------|-------------------|
|---------------5-|---4----(4)------|-1--2--1s2---1s2-|-(2)---------------|
|---------------5-|---4----(4)------|-1--2--1s2---1s2-|-(2)---------------|
|-----------------|-----------------|-----------------|-------------------|
|-2-2-2-2-2-2-2---|-------------2-2-|-------------1s2-|-(2)----2-2-2-2-2--|


  PM--------|
  E E E E E E E  E   E  Q   +E   Q  +E   E
|------------------|-----------------------|
|------------------|-----------------------|
|------------------|---10--(10)\-7--(7)\-4-|
|------------------|---10--(10)\-7--(7)\-4-|
|------------------|-----------------------|
|-2-2-2-2-2-2-2s10-|-----------------------|


                              PM----|
  +Q   +E   E +E  Q  E   H    E E E E
|----------------------|---------------|
|----------------------|---------------|
|-(4)--(x)\-1-(1)-2--1s|=2-------------|
|-(4)--(x)\-1-(1)-2--1s|=2-------------|
|----------------------|---------------|
|----------------------|------2-2-2-2--|


  PM----------|
  E E E E E E E E   E Q.   +E  S S Q
|-----------------|-------------------|
|-----------------|-------------------|
|---------------5-|---4----(4)-4-4----|
|---------------5-|---4----(4)-4-4----|
|-----------------|-------------------|
|-2-2-2-2-2-2-2---|----------------2--|


                                               Gtr II
  Q  Q  E E E E   Q.   E Q  Q    +E  Q.   +Q   E e
|---------------|--------------|--------------------||
|---------------|--------------|-----------------2--||
|-1--2--1s2-----|-2----2----2--|-(2)-2----(2)----2--||
|-1--2--1s2-----|-2----2----2--|-(2)-2----(2)----2--||
|---------------|-2----2----2--|-(2)-2----(2)----0--||
|-------------0-|-0----0----0--|-(0)-0----(0)-------||


 Classroom Noise
  Gtr II
                                                 |-3-|
  Q  q  E E E E   +Q   q  E E E E   +Q   E E E E E E E   q  E E +Q   E E
|---------------|-----------------|--------------------|-----------------|
|---------------|-----------------|--------------------|-----------------|
|----5--5p2---2-|-(2)--5--5p2---2-|-(2)--5p2-----------|-5--8s7-(7)--x-2-|
|----2--2-----2-|-(2)--2--2-----2-|-(2)--2-------------|-5--8s7-(7)--x-2-|
|---------------|-----------------|------------0h5h6h7-|-----------------|
|---------------|-----------------|--------------------|-----------------|


                                                   |-3-|
  +Q   q  E E E E   +Q   q  E E E E   +Q   E E E E E E E   q  E E +Q   E E
|-----------------|-----------------|--------------------|------------------|
|-----------------|-----------------|--------------------|------------------|
|-(2)--5--5p2---2-|-(2)--5--5p2---2-|-(2)--5p2-----------|-5--8s7-(7)----2--|
|-(2)--2--2-----2-|-(2)--2--2-----2-|-(2)--2-------------|-5--8s7-(7)----2--|
|-----------------|-----------------|------------0h5h6h7-|------------------|
|-----------------|-----------------|--------------------|------------------|


                                                   |-3-|
  +Q   q  E E E E   +Q   q  E E E E   +Q   E E E E E E E   q  E E +Q   E E
|-----------------|-----------------|--------------------|------------------|
|-----------------|-----------------
 Comments (click here to add a non-facebook comment)
If you wanted to add chords, you could insert
an F and an Am7 into the mix.
Here's how it would look:

(verse 1)
Dm F C Am7
What Child is this, who laid to rest
Dm A
On Mary's lap is sleeping?
Dm F C Am7
Whom angels greet with anthems sweet
Dm A Dm
While shepherds watch are keeping?



-seans78 | 12/21/2004
Home | FAQs | Privacy | Terms | Contact
Top 100 Tab Sites