Give Kudos?
Are you sure you want to give kudos to aussief?

Add To Songbook?
Are you sure you want to add this song to your songbook?


3,430 bands | 16,496 songs
Search: Register FREE! | Login
Browse Songs:
Browse Bands:
Tool Panel
Discuss This Song

1 2 3 4 5



Tracy Chapman - Give Me One Reason (Tab)
Submitter: aussief (7) on 1/6/13 1 comment
Month Views: 2 | Total Views: 5,341
Moderator: EVILUTION | Report This Song?
Song Tools

Comment

Songbook

Kudos

Show Chords

Print

  Words and Music by Tracy Chapman

INTRO
             F                  Bb    C            F
E|---------|------------------|------------------|------------------|----------|
B|---------|------------------|-------1----------|------------------|----------|
G|---------|----------1--3--1-|-3----------------|------------------|----------|
D|-1--3--1-|-3-----3----------|----------1--3--1-|-3-----3--1--3--1-|-3------3-|
A|---------|------------------|------------------|------------------|----------|
E|---------|------------------|------------------|------------------|----------|

F                           Bb
Give me one reason to stay here
          C               F
And I'll turn right back around
Bb
Give me one reason to stay here
          C               F
And I'll turn right back around
           C
Because I don't want leave you lonely
Bb7                              F
But you got to make me change my mind

F                       Bb    C                 F
Baby I got your number and I know that you got mine
    Bb               C                             F
But you know that I called you, I called too many times
        C                      Bb7
You can call me baby, you can call me anytime
                    F
But you got to call me

F
Give me one reason to stay here
Bb        C               F
And I'll turn right back around
Bb
Give me one reason to stay here
          C               F
And I'll turn right back around
           C
Because I don't want leave you lonely
     Bb7                          F
But you got to make me change my mind

F                                   Bb         C            F
I don't want no one to squeeze me, they might take away my life
        Bb                                     C            F
I don't want no one to squeeze me, they might take away my life
        C                       Bb7                     F
I just want someone to hold me and rock me through the night

SOLO
   F                            C                F
E|-------|------------|-8---------------------|------------|--11-------|
B|-------|-9----------|---11-9-11-10----------|-------9----|-----13-13-|
G|----10-|---10-10----|---------------10-10-8-|-8-10-------|-----------|
D|-10----|------------|-----------------------|------------|-----------|
A|-------|------------|-----------------------|------------|-----------|
E|-------|------------|-----------------------|------------|-----------|

   Bb                              C          F
E|-------------|----------------------------|-----------|---------8-|
B|-13-11-9-11--|-(11)-9----9-9--------------|-----------|-----------|
G|-------------|--------10-----10-10-8----8-|-10--------|-----------|
D|-------------|-----------------------10---|-----10----|-----------|
A|-------------|----------------------------|-----------|-----------|
E|-------------|----------------------------|-----------|-----------|

    C                        Bb7
E|------------------8------|------------------------|
B|-11--9----9-9-------11-9-|-11-9-------------------|
G|-------10-----10---------|-------10-8-10----------|
D|-------------------------|---------------10-------|
A|-------------------------|------------------13----|
E|-------------------------|---------------------13-|

F                                Bb   C                F
This youthful heart can love you and give you what you need
       Bb                             C                 F
This youthful heart can love you and give you what you need
        C
But I'm too old to go chasing you around
Bb7                   F
Wasting my precious energy

F
Give me one reason to stay here
Bb7      C                F
And I'll turn right back around
Bb
Give me one reason to stay here
          C               F
And I'll turn right back around
           C
Because I don't want leave you lonely
Bb7                               F
But you got to make me change my mind

F                              Bb      C              F
Baby just give me one reason, Give me just one reason why
Bb                                     C                           F
Baby just give me one reason, Give me just one reason why I should stay
           C
Because I told you that I loved you
Bb7                         F
And there ain't no more to say

OUTRO
   F
E|---------------------|-----------------|
B|-11---10---11---10---|-----------------|
G|---------------------|--10--8--10------|
D|---------------------|-----------------|
A|---------------------|-----------------|
E|---------------------|-----------------|

( there are a few fills that I didn`t put in,, if anyone wants them
  send me a message)
 An F. K. Tab,,,Enjoy!!!!!!



 Comments (click here to add a non-facebook comment)
What a great blues song! Excellent job,
mate with an excellent tab. KK.
-kraziekhat | 1/7/2013
Home | FAQs | Privacy | Terms | Contact
Top 100 Tab Sites