Give Kudos?
Are you sure you want to give kudos to aussief?

Add To Songbook?
Are you sure you want to add this song to your songbook?


3,063 bands | 13,739 songs
Search: Register FREE! | Login
Browse Songs:
Browse Bands:
Tool Panel
Discuss This Song

1 2 3 4 5





The Virtues - Guitar Boogie Shuffle (Tab)
Submitter: aussief (114) on 4/11/09 1 comment
Month Views: 170 | Total Views: 7,532
Help! We need a moderator for this artist. | Report This Song?
Song Tools

Comment

Songbook

Kudos

Show Chords

Print

Composed by Arthur Smith

   Eb6
E|-------------------|--------------------|-------------------|-----------------|
B|-------------------|--4-----------------|-------------------|-4---------------|
G|----0--0--3--5--5--|-----5--5--3--0--0--|-----0--0--3--5--5-|---5--5--3--0--0-|
D|-1-----------------|--------------------|--1----------------|-----------------|
A|-------------------|--------------------|-------------------|-----------------|
E|-------------------|--------------------|-------------------|-----------------|

   Ab7                                       Eb6
E|------------------|----------------------|------------------|-----------------|
B|----------4--6--6-|--7--6--7--6----------|------------------|-4---------------|
G|----5--5----------|--------------8--5----|----0--0--3--5--5-|---5--5--3--0--0-|
D|-6----------------|--------------------6-|-1----------------|-----------------|
A|------------------|----------------------|------------------|-----------------|
E|------------------|----------------------|------------------|-----------------|


   Bb7                                     Eb6
E|-------------------|-------------------|-------------------|------------------|
B|----1--1--3--1--1--|-------------------|-------------------|--4---------------|
G|-3-----------------|-3--1--1--0--------|------5--5--3---5--|------5--5--3--5--|
D|-------------------|-------------3--3--|--1----------------|------------------|
A|-------------------|-------------------|-------------------|------------------|
E|-------------------|-------------------|-------------------|------------------|

       (REPEAT BUT REPLACE THE LAST 2 BARS WITH)
   Eb6
E|-----------------|-------------|
B|-----------------|-------------|
G|-----5--3--1-----|-------------| THEN PLAY
D|-1------------3--|--1----------|
A|-----------------|-------------|
E|-----------------|-------------|

Eb6
E|------------------|------------------|------------------|-------------------|
B|------------------|------------------|------------------|-------------------|
G|----3-4-5---3-4-5-|----3-4-5---3-4-5-|---3-4-5----3-4-5-|---3-4-5----3-4-5--|
D|-1--------1-------|-1--------1-------|-1--------1-------|-1--------1--------|
A|------------------|------------------|------------------|-------------------|
E|------------------|------------------|------------------|-------------------|

   Ab7                                     Eb6
E|--------------------|------------------|-------------------|-----------------|
B|----4-5-6-----4-5-6-|---4-5-6---4-5-6--|-------------------|-----------------|
G|-1---------1--------|-1-------1--------|----3-4-5----3-4-5-|---3-4-5---3-4-5-|
D|--------------------|------------------|-1---------1-------|-1-------1-------|
A|--------------------|------------------|-------------------|-----------------|
E|--------------------|------------------|-------------------|-----------------|

   Bb7                                       Eb6
E|----1-2-3-----1-2-3-|---1-2-3-----1-2-3--|-----------------|------------------|
B|--------------------|--------------------|-----------------|------------------|
G|-3---------3--------|-3--------3---------|---3-4-5---3-4-5-|---3-4-5---3-4-5--|
D|--------------------|--------------------|-1-------1-------|-1-------1--------|
A|--------------------|--------------------|-----------------|------------------|
E|--------------------|--------------------|-----------------|------------------|

  Eb6
E|---------------4--5-|--6--4--6------------|------4--6---------|---------------|
B|------6--7--8-------|----------8----------|----8------8-------|--2-1---1--2---|
G|----8---------------|------------8--5--4--|-8------------8----|------3--------|
D|-8------------------|---------------------|-----------------8-|---------------|
A|--------------------|---------------------|-------------------|---------------|
E|--------------------|---------------------|-------------------|---------------|

   Ab7                                     Eb6
E|---1-Let ring--|--------1-----1--------|----------------|-----------3-----|
B|-4-------------|--3--4-----3-----4--3--|--4------1------|-----1--4--------|
G|---------------|-----------------------|------3----1----|--3--------------|
D|---------------|-----------------------|--------------3-|-----------------|
A|---------------|-----------------------|----------------|-----------------|
E|---------------|-----------------------|----------------|-----------------|


   Bb7                                      Abmaj7     Bb7              Eb6
E|--6--6---6-6--6-|--6--4--6---3--4--6--4-|--3----------1-----------|---------|
B|----------------|-----------------------|-----4--1-------3--4-----|---------|
G|----------------|-----------------------|----------1-----------3--|---3-----|
D|----------------|-----------------------|-------------------------|---------|
A|----------------|-----------------------|-------------------------|---------|
E|----------------|-----------------------|-------------------------|---------|
 Comments (click here to add a non-facebook comment)
Nice work. A great instrumental oldie.KK.
-kraziekhat | 4/14/2009
Home | FAQs | Privacy | Terms | Contact
Top 100 Tab Sites