Give Kudos?
Are you sure you want to give kudos to aussief?

Add To Songbook?
Are you sure you want to add this song to your songbook?


3,420 bands | 16,457 songs
Search: Register FREE! | Login
Browse Songs:
Browse Bands:
Tool Panel
Discuss This Song

1 2 3 4 5



The Village Stompers - Midnight In Moscow (Tab)
Submitter: aussief (36) on 6/14/12 2 comments
Month Views: 49 | Total Views: 26,091
Help! We need a moderator for this artist. | Report This Song?
Song Tools

Comment

Songbook

Kudos

Show Chords

Print

Based on a song by Vassili Soloviev - Sedoy and M. Matusovsky
   Original title Podmoskovnye Vechera ( Moscow Nights)
   Kenny Ball and His Jazzmen also had a version of this one.

            Cm           Fm            Cm    G7    Cm         Eb
E|-------|-------------|-------------|----------|-----------|-------6--6-|
B|-------|--------8----|-------------|-8--------|-----------|----8-------|
G|-------|-----8-----8-|-10-----8--7-|-------10-|-----------|-8----------|
D|-----9-|-10----------|-------------|----------|-10--------|------------|
A|-10----|-------------|-------------|----------|-----------|------------|
E|-------|-------------|-------------|----------|-----------|------------|

   Ab   Bb7    Eb        D7     G7   Cm                     Fm
E|-8----6----|---------|--------7-|-10--8----|------------|----------|
B|---------9-|-8-------|-10-------|--------8-|------------|-8------9-|
G|-----------|---------|----------|----------|---8--7--10-|----10----|
D|-----------|---------|----------|----------|------------|----------|
A|-----------|---------|----------|----------|------------|----------|
E|-----------|---------|----------|----------|------------|----------|

               Cm            G7            Cm         D7      G7
E|---6--6----|-------------|-------------|----------|---------7-|
B|---------9-|-8-----------|-8-----------|----------|-10--------|  ( REPEAT FROM
G|-----------|-------10--8-|----10--8--7-|----------|-----------|    START)
D|-----------|-------------|-------------|-10-------|-----------|
A|-----------|-------------|-------------|----------|-----------|
E|-----------|-------------|-------------|----------|-----------|

An F. K. Tab,,,, Enjoy!!!!!!

 Comments (click here to add a non-facebook comment)
Nice job. Love the Kenny Ball version. KK.
-kraziekhat | 6/15/2012
Nice job. Love the Kenny Ball version, too. KK.
-kraziekhat | 6/15/2012
Home | FAQs | Privacy | Terms | Contact
Top 100 Tab Sites