Give Kudos?
Are you sure you want to give kudos to aussief?

Add To Songbook?
Are you sure you want to add this song to your songbook?


3,430 bands | 16,496 songs
Search: Register FREE! | Login
Browse Songs:
Browse Bands:
Tool Panel
Discuss This Song

1 2 3 4 5



The Ventures - Walk Don`t Run (Tab)
Submitter: aussief (7) on 5/22/13 2 comments
Month Views: 21 | Total Views: 19,991
Moderator: paulbritmolly | Report This Song?
Song Tools

Comment

Songbook

Kudos

Show Chords

Print

 Composed and originally recorded  by jazz guitarist Johnny Smith

INTRO
   Am     G        F   E        Am      G          F   E
E|---------------|------------|------------------|-----------|
B|---------------|------------|------------------|-----------|
G|-2-2-2--0-0-0--|------------|-2-2-2---0-0-0----|-----------|
D|---------------|-3-3-3-2----|------------------|-3-3-3-2---|
A|---------------|------------|------------------|-----------|
E|---------------|------------|------------------|-----------|

   Am    G           F     E        Am     G            F
E|------------------|-------------|-------------------|------------|
B|------------------|------1------|-------------------|------------|
G|-2----------------|--0-2-----4--|-2-----------------|--0-2-0-----|
D|-----------0-2-3--|-------------|------------0-2-3--|---------3--|
A|----0-2-3---------|-------------|-----0-2-3---------|------------|
E|------------------|-------------|-------------------|------------|

   C           G7            C                 E
E|------------|------------|-----------------|--------------------|
B|------------|------------|-----------------|--------------------|
G|------------|------------|-----------------|---1-1-1--1-1-------|
D|-2-1-2-2----|-0-2-3-2-0--|---0-2-0-----0-2-|--------------------|
A|------------|------------|-3--------3------|----------------2-0-|
E|------------|------------|-----------------|--------------------|

  Am      G           F     E        Am      G           F
E|------------------|--------------|-------------------|-------------|
B|------------------|-------1------|-------------------|-------------|
G|-2----------------|--0-2-----4---|-2-----------------|--0-2-0------|
D|-----------0-2-3--|--------------|------------0-2-3--|---------3---|
A|----0-2-3---------|--------------|-----0-2-3---------|-------------|
E|------------------|--------------|-------------------|-------------|

   C           G7            C        F          C
E|------------|------------|-------------------|------------------|----------|
B|------------|------------|-------------------|------------------|----------|
G|------------|------------|-------------------|------------------|----------|
D|-2-1-2-2----|-0-2-3-2-0--|----0-2-0----0-----|------------0-2-3-|-5---5----|
A|------------|------------|-3--------3-----3--|-----0-2-3--------|----------|
E|------------|------------|-------------------|---3--------------|----------|

                    Am                       F                 E
E|---------------|---------------|---------|-----------------|---------------|
B|---------------|---------------|---------|-1-------1-------|---------------|
G|---------------|---2------2----|-2--2----|----2-------2----|-4-1----4-1----|
D|-5--5-5-5-5-5--|-2------2------|---------|------3--------3-|------2------2-|
A|---------------|---------------|---------|-----------------|---------------|
E|---------------|---------------|---------|-----------------|---------------|

   Am                  Am     G           F              Am     G
E|--------|----------|------------------|--------------|-------------------|
B|--------|----------|------------------|-------1------|-------------------|
G|-2------|----------|-2----------------|---0-2-----4--|-2-----------------|
D|--------|-2-0------|-----------0-2-3--|--------------|------------0-2-3--|
A|--------|------3-2-|----0-2-3---------|--------------|----0-2-3----------|
E|--------|----------|------------------|--------------|-------------------|

   F              C            G7              C
E|--------------|------------|---------------|---------------------|
B|--------------|------------|---------------|---------------------|
G|---0-2-0------|------------|---------------|---------------------|
D|-----------3--|-2-1-2-2----|---0-2-3-2-0---|-----0-2-0---0---2---|
A|--------------|------------|---------------|-3---------3---------|
E|--------------|------------|---------------|---------------------|

     E                Am     G            F     E        Am      G
E|------------------|-------------------|--------------|--------------------|
B|------------------|-------------------|-------1------|--------------------|
G|---1-1-1-1-1------|-2-----------------|---0-2-----4--|-2------------------|
D|------------------|-----------0-2-3---|--------------|------------0-2-3---|
A|--------------2-0-|----0-2-3----------|--------------|-----0-2-3----------|
E|------------------|-------------------|--------------|--------------------|

  F              C              G7             C          F
E|--------------|-------------|--------------|------------------------|
B|--------------|-------------|--------------|------------------------|
G|---0-2-0------|-------------|--------------|------------------------|
D|-----------3--|-2-1-2-2-----|---0-2-3-2-0--|-----0-2-0-----0--------|
A|--------------|-------------|--------------|-3----------3-------3---|
E|--------------|-------------|--------------|------------------------|

   C                                                Am
E|------------------|-----------|-----------------|---------------|-----------|
B|------------------|-----------|-----------------|---------------|-----------|
G|------------------|-----------|-----------------|----2------2---|-2----2----|
D|------------0-2-3-|-5---5-----|--5----5-5-5-5-5-|-2-------2-----|-----------|
A|-----0-2-3--------|-----------|-----------------|---------------|-----------|
E|---3--------------|-----------|-----------------|---------------|-----------|

   F                   E                 Am                   Am      G
E|-------------------|----------------|----------|----------|-------------------|
B|-1--------1--------|----------------|--1-------|----------|-------------------|
G|---2---------2-----|-4-1----4-1-----|----------|----------|-2-----------------|
D|------3----------3-|------2------2--|----------|-2-0------|-----------0-2-3---|
A|-------------------|----------------|----------|------3-2-|-----0-2-3---------|
E|-------------------|----------------|----------|----------|-------------------|

  F      E        Am      G            F              C
E|--------------|--------------------|--------------|---------------|
B|-------1------|--------------------|--------------|---------------|
G|---0-2-----4--|-2------------------|---0-2-0------|---------------|
D|--------------|------------0-2-3---|-----------3--|-2-1-2-2-------|
A|--------------|-----0-2-3----------|--------------|---------------|
E|--------------|--------------------|--------------|---------------|

  G7                C                   E                    Am      G
E|----------------|-------------------|--------------------|--------------------|
B|----------------|-------------------|--------------------|--------------------|
G|----------------|-------------------|----1-1-1--1-1------|-2------------------|
D|----0-2-3--2--0-|-----0-2-0-----0-2-|--------------------|-----------0-2-3----|
A|----------------|-3----------3------|----------------2-0-|-----0-2-3----------|
E|----------------|-------------------|--------------------|--------------------|

   F      E         Am     G          F               C
E|----------------|------------------|---------------|-------------|
B|--------1-------|------------------|---------------|-------------|
G|---0-2------4---|-2----------------|---0-2-0-------|-------------|
D|----------------|----------0-2-3---|-----------3---|-2-1-2-2-----|
A|----------------|----0-2-3---------|---------------|-------------|
E|----------------|------------------|---------------|-------------|

  G7               C     F          C
E|--------------|---------------|---------------------|
B|--------------|---------------|----1-------1--------|
G|--------------|---------------|--------4------------|
D|--0--2--3--2--|---------3--3--|---------------------|
A|--------------|--3--3---------|---------------------|
E|--------------|---------------|---------------------|

An F. K. Tab,,,,Enjoy!!!!!!
 Comments (click here to add a non-facebook comment)
My favourite Ventures tab. Good one. KK.
-kraziekhat | 5/23/2013
Hey Aussief,nice job! Instrumentals have always been some on my favorite music,especially the 50s and 60s! Keep it going! Ron from Boston
-harleygeezer | 5/25/2013
Home | FAQs | Privacy | Terms | Contact
Top 100 Tab Sites