Give Kudos?
Are you sure you want to give kudos to aussief?

Add To Songbook?
Are you sure you want to add this song to your songbook?


3,420 bands | 16,455 songs
Search: Register FREE! | Login
Browse Songs:
Browse Bands:
Tool Panel
Discuss This Song

1 2 3 4 5



The Surfaris - Wipeout (Tab)
Submitter: aussief (55) on 4/29/19
Month Views: 36 | Total Views: 253
Help! We need a moderator for this artist. | Report This Song?
Song Tools

Comment

Songbook

Kudos

Show Chords

Print

     Composed by Ron Wilson, Bob Berryhill, James Fuller, and Pat Connolly

INTRO: Falsetto Laugh and "Wipeout" then four bars of drums then Bass...

      C
E|-----------|------------------|-------------------|------------------|
B|-----------|------------------|-------------------|------------------|
G|-------3-4-|-5-5-5-3------3-4-|-5-5-5-3-------3-4-|5-5-5-3-------3-4-|
D|----5------|---------5-5------|----------5-5------|---------5-5------|
A|-----------|------------------|-------------------|------------------|
E|-----------|------------------|-------------------|------------------|

                        F                                     C
E|--------------------|----------------|--------------------|--------------------|
B|----------------4-5-|-6-6-6-4----4-5-|-6-6-6-4------------|--------------------|
G|-5-5-5-3-----5------|----------5-----|----------5-----3-4-|-5-5-5-3--------3-4-|
D|----------5---------|----------------|-------------5------|-----------5-5------|
A|--------------------|----------------|--------------------|--------------------|
E|--------------------|----------------|--------------------|--------------------|

                          G                 F                   C
E|----------------------|-----------------|-------------------|------------------|
B|------------------4-6-|-8-8-8-6-------8-|-6-6-6-4-----------|------------------|
G|-5-5-5-3--------------|----------7-7----|----------5----3-4-|-5--5-3-------3-4-|
D|----------5-----------|-----------------|-------------5-----|---------5-5------|
A|-------------3--------|-----------------|-------------------|------------------|
E|----------------------|-----------------|-------------------|------------------|

                                   C                                   F       
E|-----------------|             |         |        |        |        |          |
B|-----------------|             |         |        |        |        |          |
G|---------------4-|  Drum Break |         |        |        |        |          |
D|-5-5-5-5---5-5-5-|             |         |        |        |        |          |
A|-----------------|             |         |        |        |        |          |
E|-----------------|             |         |        |        |        |          |

           C                     G           F        C
|         |         |          |           |         |          |
|         |         |          |           |         |          |
                Instrumental Break
  C
E|--------|-s-8-8-8-|-------------8-8-8-|-b-11--8-8-8-8-8-8-|--8--8--8-11-8-|
B|--------|-s-8-8-8-|-b-11--11-8--8-8-8-|-b-11--8-8-8-8-8-8-|--8--8--8-11-8-|
G|----3-4-|---------|-------------------|-------------------|---------------|
D|-5------|---------|-------------------|-------------------|---------------|
A|--------|---------|-------------------|-------------------|---------------|
E|--------|---------|-------------------|-------------------|---------------|

                     F                                  C
E|--8--8--8-8-8-s-|--1-1-1---------|------------------|-s-8-8-8-8------8--|
B|--8--8--8-8-8-s-|--1-1-1-4-1-1-1-|-1-1--b-4--1--4-s-|-s-8-8-8-8-b11--8--|
G|----------------|----------------|------------------|-------------------|
D|----------------|----------------|------------------|-------------------|
A|----------------|----------------|------------------|-------------------|
E|----------------|----------------|------------------|-------------------|

                    G                F                  C
E|--8-8-8--8-8-s-|--3-3-3-3-5-3-3-|--1-1-1-1----------|--------------8----|
B|--8-8-8--8-8-s-|--3-3-3-3-5-3-3-|--1-1-1-1-b4-1-1-1-|-8-8-8-8-b11-----8-|
G|---------------|----------------|-------------------|-------------------|
D|---------------|----------------|-------------------|-------------------|
A|---------------|----------------|-------------------|-------------------|
E|---------------|----------------|-------------------|-------------------|

  G7
E|------------------| (all the bends in the break are 1/4 bends)
B|------------------|
G|-8-10-8-10--8-8-8-|   Back to beginning. 
D|------------------|
A|------------------|   An F. K. Tab,,,,Enjoy!!!!!!!
E|------------------|
 Comments (click here to add a non-facebook comment)
Home | FAQs | Privacy | Terms | Contact
Top 100 Tab Sites