Give Kudos?
Are you sure you want to give kudos to musicmixstudio2?

Add To Songbook?
Are you sure you want to add this song to your songbook?


3,430 bands | 16,491 songs
Search: Register FREE! | Login
Browse Songs:
Browse Bands:
Tool Panel
Discuss This Song

1 2 3 4 5



The Surfaris - Wipeout (Tab)
Submitter: musicmixstudio2 (5) on 11/7/05 2 comments
Month Views: 28 | Total Views: 3,417
Help! We need a moderator for this artist. | Report This Song?
Song Tools

Comment

Songbook

Kudos

Show Chords

Print

          
          ddbann at gmail.com 005
          Played fast - surf music
          Use reverb if you can
            


          E|-------|-------|-------|-------|-------
          B|0-3-4-5|-5-3-0-|0-3-4-5|-5-3-0-|0-3-4-5
          G|-------|-------|-------|-------|-------
          D|-------|-------|-------|-------|-------
          A|-------|-------|-------|-------|-------
          E|-------|-------|-------|-------|-------
            

           
          E|-------|0-3-4-5|-5-3-0-|0-3-4-5|-5-3-0-
          B|-5-3-0-|-------|-------|-------|-------
          G|-------|-------|-------|-------|-------
          D|-------|-------|-------|-------|-------
          A|-------|-------|-------|-------|-------
          E|-------|-------|-------|-------|-------


            
          E|-------|-------|--5-6-7|-7-5-0-|---7---
          B|0-3-4-5|-5-3-0-|-7-----|-------|-7-----
          G|-------|-------|-------|-------|-------
          D|-------|-------|-------|-------|-------
          A|-------|-------|-------|-------|-------
          E|-------|-------|-------|-------|-------


           
          E|-5-5-5-|-3-0---|-------|-------|-------
          B|-------|-----0-|-3-4-5-|-5-5-5-|-3-3-3-
          G|-------|-------|-------|-------|-------
          D|-------|-------|-------|-------|-------
          A|-------|-------|-------|-------|-------
          E|-------|-------|-------|-------|-------


            
          E|-------|-0-----|-------|-------|-------
          B|-0-3-4-|-------|-------|-------|-------
          G|-------|-------|-------|-------|-------
          D|-------|-------|-------|-------|-------
          A|-------|-------|-------|-------|-------
          E|-------|-------|-------|-------|-------
 Comments (click here to add a non-facebook comment)
I am pretty sure thats wrong
try E-----------------------0--3---4---5--3--0
B--0--3--4--5---3---0---------------------
G-----------------------------------------
D-----------------------------------------
A-----------------------------------------
E-----------------------------------------
-bret309 | 11/8/2005
thanx. yeah strange mental lapse and got it one fret off.thanks again. dB.
-musicmixstudio2 | 11/8/2005
Home | FAQs | Privacy | Terms | Contact
Top 100 Tab Sites