Give Kudos?
Are you sure you want to give kudos to aussief?

Add To Songbook?
Are you sure you want to add this song to your songbook?


3,415 bands | 16,405 songs
Search: Register FREE! | Login
Browse Songs:
Browse Bands:
Tool Panel
Discuss This Song

1 2 3 4 5





The Seekers - I`ll Never Find Another You (Tab)
Album: 25 Year Reunion Celebration (1993)
Submitter: aussief (102) on 10/20/18
Month Views: 33 | Total Views: 73
Moderator: smopuim | Report This Song?
Song Tools

Comment

Songbook

Kudos

Show Chords

Print

Words and Music by Tom Springfield

INTRO. 12 string guitar

   C                     G
E|---------------------|----------|---------------------|---------|--------------------|
B|---------------------|----------|---------------------|---------|--------------------|
G|------0--------------|----------|------0--------------|---------|------0-------------|
D|----2----3--2--0-----|--------0-|----2----3--2--0-----|-------0-|---2-----3--2--0----|
A|-3-------------------|------2---|-3-------------------|-----2---|-3------------------|
E|-------------------3-|---3------|-------------------3-|--3------|------------------3-|

 G         C         F
There's a new world somewhere
       D                 G
 They call the promised land.
           C        Em
 And I'll be there someday
     F                 G
 If you will hold my hand.
          Am             F
 I still need you there beside me
      G     F     Em
 No matter what I do
  F      C        Am    Dm    G      C    F G
 For I know I'll never find another you.

            C     F           D                G
 There is always someone For each of us, they say.
             C     Em       F            G
 And you'll be my someone Forever and a day.
          Am               F           G       F        Em
 I could search the whole world over Until my life is through
  F     C         Am    Dm    G      C    F C
 But I know I'll never find another you.

         Am          F         C   G      C
 It's a long, long journey So stay by my side.
         Am               G           F      C     F       G
 When I walk through the storm You'll be my guide, be my guide.

          C          F          D                G
 If they gave me a fortune My pleasure would be small.
          C            Em          F             G
 I could lose it all tomorrow And never mind at all.
        Am                  F             G          F       Em
 But if I should lose your love, dear, I don't know what I'd do
  F      C        Am    Dm           C
 For I know I'll never find another you.

   C                                  F         D              G        C
E|--------------------|-------------|---------|--------------|--------|------|--------|
B|--------------------|-------------|---------|--------------|--------|------|--------|
G|------0-------------|-------------|-0-------|--------------|--------|----0-|-2--0--0|
D|----2---3--2--0-----|-----0--2--2-|----3--2-|-0----0-------|------0-|-2----|--------|
A|-3------------------|--3----------|---------|----0----3--2-|---3----|------|--------|
E|------------------3-|-------------|---------|--------------|--------|------|--------|

   F
E|-------------|
B|-------------|
G|-2--0---2--0-|
D|------3------|
A|-------------|
E|-------------|

        Am                  F             G          F       Em
 But if I should lose your love, dear, I don't know what I'd do.
  F     C         Am    F     G      C   F  G
 For I know I'll never find another you.
  G       C    F  G
 Another you.
  G       C    F  C.
 Another you!                  An F. K. Tab,,,,Enjoy!!!!!!!
 Comments (click here to add a non-facebook comment)
Home | FAQs | Privacy | Terms | Contact
Top 100 Tab Sites