Give Kudos?
Are you sure you want to give kudos to microsysinc?

Add To Songbook?
Are you sure you want to add this song to your songbook?


3,375 bands | 16,049 songs
Search: Register FREE! | Login
Browse Songs:
Browse Bands:
Tool Panel
Discuss This Song

1 2 3 4 5





The Original Caste - One Tin Soldier (instrument Solos) (Solo)
Submitter: microsysinc (34) on 8/23/10 3 comments
Month Views: 598 | Total Views: 14,565
Help! We need a moderator for this artist. | Report This Song?
Song Tools

Comment

Songbook

Kudos

Show Chords

Print

One Tin Soldier (Instrument Solos for guitar)  -  The Original Caste

Video:  CD  http://www.youtube.com/watch?v=J7jHp7OchP0

Intro (flute intro for guitar)
   E  E    F  G  G   D~~~~   C  C    D  E  E   B~~~~   A  A    B  C  G  C  C
e--0--0----1--3--3--------|-------------------------|-------------------------|
B--------------------3~~~~|--1--1----3--5--5--------|-------------------------|
G-------------------------|--------------------4~~~~|--2--2----4--5-----5--5--|
D-------------------------|-------------------------|----------------5--------|
A-------------------------|-------------------------|-------------------------|
E-------------------------|-------------------------|-------------------------|
   G  A  A  F  A  C~~~~C~~~~C~~~~
e--------------------------------|
B--------------------------------|
G-----2--2-----2--5~~~~5~~~~5~~~~|
D--5--------3--------------------|
A--------------------------------|
E--------------------------------|


Outro (flute outro for guitar)
   F  F    F# Ab Ab  Eb~~~~  C# C#   Eb F  F   C~~~~   Bb Bb   C  C# Ab C# C#
e--1--1----2--4--4--------|-------------------------|-------------------------|
B--------------------4~~~~|--2--2----4--6--6--------|-------------------------|
G-------------------------|--------------------5~~~~|--3--3----5--6-----6--6--|
D-------------------------|-------------------------|----------------6--------|
A-------------------------|-------------------------|-------------------------|
E-------------------------|-------------------------|-------------------------|
   Ab Bb Bb F# Bb C#~~~C#~~~C#~~~
e--------------------------------|
B--------------------------------|
G-----3--3-----3--6~~~~6~~~~6~~~~|
D--6--------4--------------------|
A--------------------------------|
E--------------------------------|

 (horn riff 1 for guitar)      (horn riff 2 for guitar)  (horn riff 3 for guitar)
   E  E    F F  F  E~~~~         C  B  C  D  E             A  G A B  A B C 
e-----------------------|     e-------------------|     e-------------------|
B--5--5----6-6--6--5~~~~|     B--1--0--1--3--5~~~~|     B-------------------|
G-----------------------|     G-------------------|     G--2--0-2-4--2-4-5--|
D-----------------------|     D-------------------|     D-------------------|
A-----------------------|     A-------------------|     A-------------------|
E-----------------------|     E-------------------|     E-------------------|

(horn riff 4 for guitar)       (horn riff 5 for guitar)  (horn riff 6 for guitar)
   F  F    F#F# F# F~~~~         C# C  C# Eb F             Bb AbBbC  BbC C#
e-----------------------|     e-------------------|     e-------------------|
B--6--6----7-7--7--6~~~~|     B--2--1--2--4--6~~~~|     B-------------------|
G-----------------------|     G-------------------|     G--3--1-3-5--3-5-6--|
D-----------------------|     D-------------------|     D-------------------|
A-----------------------|     A-------------------|     A-------------------|	
E-----------------------|     E-------------------|     E-------------------|
 Comments (click here to add a non-facebook comment)
Another great job,, well done!!!!
-aussief | 8/24/2010
Thanks much F.K. This one is dedicated to kraziekhat and yourself. Our site wouldn't be nearly what it is without your unselfish and precise contributions...
-microsysinc | 8/24/2010
I missed this one. Great job. KK.
-kraziekhat | 9/10/2011
Home | FAQs | Privacy | Terms | Contact
Top 100 Tab Sites