Give Kudos?
Are you sure you want to give kudos to aussief?

Add To Songbook?
Are you sure you want to add this song to your songbook?


3,393 bands | 16,277 songs
Search: Register FREE! | Login
Browse Songs:
Browse Bands:
Tool Panel
Discuss This Song

1 2 3 4 5





The Mamas and the Papas - Dancing In The Street (Tab)
Submitter: aussief (98) on 7/8/18
Month Views: 52 | Total Views: 52
Moderator: kraziekhat | Report This Song?
Song Tools

Comment

Songbook

Kudos

Show Chords

Print

Words and Music by Marvin Gaye, Ivory Joe Hunter and William Stevenson
     A minor hit but I think it`s the best version of this song.

Bass Intro.

E|-----------------|--------------|-----------------|--------------|-----------------|
B|-----------------|--------------|-----------------|--------------|-----------------|
G|-----------------|--------------|-----------------|--------------|-----------------|
D|-----------------|--------------|-----------------|--------------|-----------------|
A|---5---5---5---6-|-7-5----5-6-7-|---5---5---5---6-|-7-5----5-6-7-|---5---5---5---6-|
E|-7---7---7---7---|------7-------|-7---7---7---7---|------7-------|-7---7---7---7---|

   E7        E7    E7        E7    E7         E7
E|---------------|---------------|-----------------|
B|---------------|---------------|-----------------|
G|---------------|---------------|-----------------|
D|---------------|---------------|-----------------|
A|-7-7-7-----5-6-|-7-7-7-----5-6-|-7-7-7-------5-6-|
E|-------7-7-----|-------7-7-----|--------7-7------|

 E7
Callin' out around the world 
Are you ready for a brand new beat?
Summer's here and the time is right
For dancin' in the streets

They're dancin' in Chicago
Down in New Orleans
Up in New York City
                A7
All we need is music (Sweet music)
Sweet music (Sweet music)
There'll be music everywhere (Oh, everywhere)
              E7
There'll be swingin', swayin', and records playin'
And dancin' in the street

 G#7
Oh, it doesn't matter what you wear
         C#m
Just as long as you are there
             F#m
So come on, every guy, grab a girl
 B7sus       B7
Everywhere around the world
              E7
There'll be dancin'
They're dancin' in the street
This is an invitation across the nation
A chance for the folks to meet

There'll be laughin' (And singin')
And music swingin'
And dancin' in the street

Philadelphia, PA (Philadelphia, PA)
Baltimore and D.C., now (Baltimore and D.C., now)
Yeah, don't forget the Motor City (Can't forget the Motor City)
                A7
All we need is music (Sweet music)
Sweet music (Sweet music)
There'll be music everywhere (Oh, everywhere)
              E7
There'll be swingin', swayin', and records playin'
And dancin' in the street, yeah

 G#7
Oh, it doesn't matter what you wear
         C#m
Just as long as you are there
             F#m
So come on, every guy, grasp a girl
 B7sus      B7
Everywhere around the world
             E7
There'll be dancin'
They dancin' in the street
 E7
Philadelphia, PA (Philadelphia, PA)
Baltimore and D.C., now (Baltimore and D.C., now)
Can't forget that Motor City (Can't forget the Motor City)
Ah, way down in L.A., California (Way down in L.A., California)
Not to mention Halifax, Nova Scotia (Not to mention, indeed)
And ** they do that **, ** you know (Yes, I know)
Manchester? (And, oh, Amherst, Amherst)
Alexandria? (Virginia, Virginia)
Falls Church (Where's that?)
Ooh, Boyle Heights! (Boyle Heights, never heard of it)

An F. K. Tab,,,Enjoy!!!!!
 Comments (click here to add a non-facebook comment)
Home | FAQs | Privacy | Terms | Contact
Top 100 Tab Sites