Give Kudos?
Are you sure you want to give kudos to axehappy?

Add To Songbook?
Are you sure you want to add this song to your songbook?


3,430 bands | 16,496 songs
Search: Register FREE! | Login
Browse Songs:
Browse Bands:
Tool Panel
Discuss This Song

1 2 3 4 5



The Eagles - Take It Easy (Lead)
Submitter: axehappy (7) on 2/1/02 4 comments
Month Views: 3 | Total Views: 9,761
Moderator: fritz | Report This Song?
Song Tools

Comment

Songbook

Kudos

Show Chords

Print

The Eagles - Take It Easy (with lead)

By axehappy - axehappy at countrytabs.com


G     =   320033                        C(add9)     =   x32033

Dsus  =   xx0233                        D           =   xx0232

C     =   x32010                        Em          =   022000

Am    =   x02210                        Em7         =   022030

G7    =   320031

***********************************************************************


G  C(add9) Dsus  G  C(add9)  Dsus  G 
INTRO


         G
Well I'm runnin' down the road tryin' to loosen my load,
                  D     C(add9)
I got seven women on my mind.
G                        D
Four that wanna hold me, two that wanna stone me,
C                          G
One says she's a friend of mine.
        Em            C  G
Take it easy, take it easy.
              Am                C                Em     Em7
Don't let the sound of your own wheels drive you crazy.
        C                  G
Lighten up while you still can, 
           C           G
Don't even try to understand.
            Am                 C
Just find a place to make your stand,
            G
And take it easy.


         G
Well I'm standin' on a corner in Winslow, Arizona,
            D        C
Such a fine sight to see.
       G                   D
It's a girl, my lord, in a flat-bed Ford,
        C                      G
Slowin' down to take a look at me.
        Em D            C  G
Come on baby, don't say maybe.
        Am                   C             Em      Em7
I gotta know that your sweet love is gonna save me.
       C               G                C              G
We may lose and we may win, but we will never be here again.
        Am              C
So open up I'm climbing in, 
           G
So take it easy.


G  D  C  G  D  C  G  Em  D  C  G  Am  C  Em  D
LEAD SOLO


         G                     
Well I'm runnin' down the road tryin' to loosen my load,
                       D     Am
Got a world of trouble on my mind.
G                       D
Lookin' for a lover who won't blow my cover,
      C          G
She's so hard to find.
        Em            C  G 
Take it easy, take it easy.
              Am                C               Em    Em7
Don't let the sound of your own wheels make you crazy.
        C G             C  G
Come on baby, don't say maybe.
        Am                   C             G
I gotta know that your sweet love is gonna save me.


C  G  G7  C  G  G7  C
INSTRUMENTAL

              G G7 C
Oh, we got it ea - sy.
                  G G7 C    Em
We oughta take it ea - sy.



***********************************************************************

b   =   bend                               br   =   bend & release

\   =   slide down                         /    =   slide up

h   =   hammer-on                          bh   =   bend & hold

p   =   pulloff                            r    =   release bend

***********************************************************************


INTRO

   G      C(add9)  D     G  C(add9)  D     G

E--3-3-3-----3-----3-----3-----3-----3---------------------------|
B--3-3-3-----3-----3-----3-----3-----3---------------------------|
G--0-0-0-----0-----2-----0-----0-----2-----7--7--7---------------|
D--0-0-0-----2-----0-----0-----2-----0-----7b-7b-7br-5-----------|
A--2-2-2-----3-----------2-----3----------------------7-5--------|
E--3-3-3-----------------3-------------------------------7\5-3---|




LEAD SOLO

      G                                C           G

E-----3-3-3-----3-------------------------------------------------
B-----3-3-3-3h5-3-3\1-0--1/3-3-3\1-0-1-1---------------3-----1-0--
G--2/4-4---4------4\2-0--2/4-4-4\2-0-2-0-0--0---0-2-2/4-4\2--2-0--
D----------------------------------------0h2----------------------
A-----------------------------------------------------------------
E-----------------------------------------------------------------

   D             C          G                   Em

E-----5-----------------------------------------12-12-10h12-12---
B--5/7-7\5-5------8-10bh-10-10-10-10r-p8--10/12-12-12-12----12---
G--5/7------7--7/9-9---------------------------------------------
D----------------------------------------------------------------
A----------------------------------------------------------------
E----------------------------------------------------------------

    D                 C       G                   Am

E--10----------------------------10-------------------7-8-7-----
B--10h12-10------------8-10-8-10b--10bh-10r-p8-8--8h10-----10---
G-----------9br-7---7/9-9-----------------------9---------------
D---------------------------------------------------------------
A---------------------------------------------------------------
E---------------------------------------------------------------

   C                E                     D

E-------------------10---10-10-10-10------12/14---|
B--8--8-------------10bh-10-10-10-10r-10--13/15---|
G--7bh-7bh-7r-p5-5--------------------------------|
D-------------------------------------------------|
A-------------------------------------------------|
E-------------------------------------------------|
 Comments (click here to add a non-facebook comment)
Very nice tab, I play it a little differently in the solo but this one
sounds good to me as well. One thing I thought maybe could use a little
tweaking:

G G7 C
Oh, we got it ea - sy.
G G7 C Em
We oughta take it ea - sy.

Instead of the "G7"s, I think it should be this chord, not sure what
it's called: 3x0233...just my opinion. Good tab overall, though.
-Smoothie7745 | 1/19/2005
I would change the part your talking about (the G7) to a D. (G D C)

-Derek_Cave99 | 3/17/2005
kick @ss tab dude,best one yet

-rsquires | 8/4/2005
yea great tab dude. good job
my band covers this song and we use this
thanks
-BREWERS | 11/20/2005
Home | FAQs | Privacy | Terms | Contact
Top 100 Tab Sites