Give Kudos?
Are you sure you want to give kudos to matellmon?

Add To Songbook?
Are you sure you want to add this song to your songbook?


3,420 bands | 16,455 songs
Search: Register FREE! | Login
Browse Songs:
Browse Bands:
Tool Panel
Discuss This Song

1 2 3 4 5



The Eagles - Outlaw Man (Chord)
Submitter: matellmon (54) on 2/11/02
Month Views: 11 | Total Views: 2,563
Moderator: fritz | Report This Song?
Song Tools

Comment

Songbook

Kudos

Show Chords

Print

INTRO:

GUITAR 1 	  	  	  	  	      1/2 step
(acoustic):    Em            Am            Em            Am           Em
 	        +  +  +  +    +  +  +  +    +  +  +  +    +  +  +  +   +   +  +  +
GUITAR 2    e:-------------|--------------|------------|------------|--------------|
(electric): B:-------------|--------------|------------|------------|--------------|
 	     G:-------------|--------------|------------|------------|--------------|
 	     D:-------------|--------------|------------|------------|--------------|
 	     A:-------------|----------5-7/|9--------9^-|-7--------7\|\0h2----------|
 	     E:-------------|--------------|------------|------------|--------------|


                                            
   Am            Em            Am
   +  +  +  +    +  +  +  +    +  +  +  +
e:-------------|-------------|-------------|
B:-------------|-------------|-------------|
G:-2-----------|-------------|-2-----------|
D:-2-----------|-2-----------|-2-----------|
A:-0-----------|-2-----------|-0-----------|
E:-------------|-0-----------|-------------|


VERSE:
 	 The electric part keeps repeating this until the change is indicated.

   Em 	  	  	     Am
     I am an outlaw, I was  born an outlaw's son.
   +   +     +      +       +       +        +    +
e:------------------------|--------------------------|
B:------------------------|--------------------------|
G:------------------------|-2------------------------|
D:-2----------------------|-2------------------------|
A:-2----------------------|-0------------------------|
E:-0----------------------|--------------------------|

    Em 	  	  	  	  Am
The highway is my legacy, on the highway I will run.
   Em 	  	  	  	  Am
In one hand I've a Bible, in the other I've got a gun.

    Em                           Am 	  	   D     G
       Well don't ya' know me?   I'm the man who won.
    +       +           +   +    +        +       +     +
e:-----------------------------|---------------------------|
B:-----------------------------|------------------3--------|
G:-----------------------------|-2----------------2--------|
D:--2--------------------------|-2----------------0-----5--|
A:--2--------------------------|-0----------------------5--|
E:--0--------------------------|------------------------3--|



CHORUS:
    C             G                      Am           Em
      Woman don't try to love me don't   try to un-derstand
    +    +        +       +              +        +   +     +
e:-------------------------------------|------------------------|
B:-------------------------------------|------------------------|
G:--5----------------------------------|-2------------------7---|
D:--5-------------5--------------------|-2------------2-----7---|
A:--3-------------5--------------------|-0------------2-----5---|
E:----------------3--------------------|--------------0---------|


   C           G                   Am                  Em
     A life upon the road is the   life of an outlaw____________man
   +     +     +       +           +          +        +  +  +  +     +  +  +  +
e:-------------------------------|-------------------|--------------|-2-----------|
B:-------------------------------|-------------------|--------------|-3-----------|
G:-5-----------------------------|-2-----------------|--------------|-4-----------|
D:-5-----------5-----------------|-2-----------------|-2------------|-------------|
A:-3-----------5-----------------|-0-----------------|-2------------|-------------|
E:-------------3-----------------|-------------------|-0------------|-------------|


VERSE:
First left my woman, it was down in Santa Fe.
Headed for Oklahoma, I was ridin' night and day.
All of my friends are strangers, they quickly come and go.
And all my love's in danger 'cause I steal hearts and souls.
Woman, don't try to love me, don't try to understand.
A life upon the road is the life of an outlaw man.

CHORUS:
Woman, don't try to love me, don't try to understand.

C 	    G 	  	       Am                  Em
  A life upon the road is the life of an outlaw_________________ man.
 	  	  	       +          +        +  +  +  +     +   +  +  +
 	  	  	    e:-------------------|--------------|--------------|
 	  	  	    B:-------------------|--------------|--------------|
 	  	  	    G:-2-----------------|--------------|--------------|
 	  	  	    D:-2-----------------|-2~~~~~~~~~~~~|~~~~~~~~~~----|
 	  	  	    A:-0-----------------|-2~~~~~~~~~~~~|~~~~~~~~~~----|
 	  	  	    E:-------------------|-0~~~~~~~~~~~~|~~~~~~~~~~----|


SOLO:
 	 Here the solo comes in.  GUITAR 1 & 2 play verse chords, and GUITAR 3,
 	    also an electric, does this (on beat four of the measure above):

GUITAR 3             Em
              1 step   1   1
   +  +  +  +        +   +   +   +
e:-----------------|-----------------|
B:-----------------|-15^-15^~~~~~~~~-|
G:----------14^p12-|-----------------|
D:-----------------|-----------------|
A:-----------------|-----------------|
E:-----------------|-----------------|

   Am                                      Em
     1       1       1       1    1    1 hold
   +          +         +       +          +   +         +       +
e:-15^--15-15^--15-15^--15-15^--15^--15^~|~~~~-14-14--14------------------|
B:---------------------------------------|-----------------15-15-15-------|
G:---------------------------------------|--------------------------16-16-|
D:---------------------------------------|--------------------------------|
A:---------------------------------------|--------------------------------|
E:---------------------------------------|--------------------------------|

   Am                           Em                                   

   +     +      +       +       +        +        +        +
e:----------------------------|-17-14----------14-17-14----------14-|
B:----------------------------|-------15----15----------15----15----|
G:-16\12-12-12~~~~-12---12-14-|----------16----------------16-------|
D:----------------------------|-------------------------------------|
A:----------------------------|-------------------------------------|
E:----------------------------|-------------------------------------|

   Am                                  Em                      
                                   1     1     1     1     1
   +        +        +        +        +     +     +     +
e:-17-14----------14----14-----------|-12----12----12----12-\-|
B:-------15----15----15----15----15^-|-15^---15^---15^---15^\-|
G:----------16----------------16-----|------------------------|
D:-----------------------------------|------------------------|
A:-----------------------------------|------------------------|
E:-----------------------------------|------------------------|


   Am          D      G       C     G
     1     1     1             Woman....
   +     +     +      +       +  +  +  +
e:--------------------------|-------------|
B:-12----12-----------------|-------------|
G:-14^---14^---14^p12-14----|-------------|
D:-----------------------14~|~~~~~~\------|
A:--------------------------|-------------|
E:--------------------------|-------------|


CHORUS:
   C             G                      Am           Em
     Woman don't try to love me don't   try to un-derstand_______________
   +    +        +        +             +        +           +  +  +  +  |
e:------------------------------------|--------------------|-------------|
B:------------------------------------|--------------------|-------------|
G:-5----------------------------------|-2------------------|-------------|
D:-5-------------5--------------------|-2------------2-----|-------------|
A:-3-------------5--------------------|-0------------2-----|-------------|
E:---------------3--------------------|--------------0-----|-------------|


   C          G                   Am                 Em 	  	    Am
     A life upon the road is the  life of an ou 
 Comments (click here to add a non-facebook comment)
Home | FAQs | Privacy | Terms | Contact
Top 100 Tab Sites