Give Kudos?
Are you sure you want to give kudos to matellmon?

Add To Songbook?
Are you sure you want to add this song to your songbook?


3,420 bands | 16,455 songs
Search: Register FREE! | Login
Browse Songs:
Browse Bands:
Tool Panel
Discuss This Song

1 2 3 4 5



The Eagles - Out Of Control (Chord)
Submitter: matellmon (54) on 2/11/02
Month Views: 8 | Total Views: 1,861
Moderator: fritz | Report This Song?
Song Tools

Comment

Songbook

Kudos

Show Chords

Print

Verse 1: strum chords

    E
Oh, my, don't the sky look spacious
 	  E
With the stars all shinin' down
 	     A
Well, I can hear the night wind howlin'
       D
It's a high and lonesome sound
      E
And I ain't had a woman in so long
 	 E
I can't feed my starvin' soul
 	  A 	  	  	       D
Come on, saddle up, boys, we're gonna ride into town
 	     E
We're gonna get a little out of control


------------------------------------------------------------------------
Short Interlude
 	  	  	  	  	  	  	  	  	 There's a ...
   +   +   +   +     +     +     +     +       +   +   +   +     +   +   +   +
e:-----------------|-------------------------|-----------------|-----------------|
B:-----------------|-------------------------|-----------------|-----------------|
G:-2---4---5---4-2-|----2--2--2--2--2--2--2--|-2---4---5---4-2-|---2---4---5---6-|
D:-2---4---5---4-2-|----2--2--2--2--2--2--2--|-2---4---5---4-2-|---2---4---5---6-|
A:-----------------|-------------------------|-----------------|-----------------|
E:-----------------|-------------------------|-----------------|-----------------|

e:-----------------|--/////9--9--9--9--9--9\\|\\---------------|-----------------|
B:-----------------|--/////10-10-10-10-10-10\|\\---------------|-----------------|
G:-----------------|--/////9--9--9--9--9--9\\|\\---------------|-----------------|
D:-----------------|-------------------------|-----------------|-----------------|
A:-----------------|-------------------------|-----------------|-----------------|
E:-----------------|-------------------------|-----------------|-----------------|


------------------------------------------------------------------------
Verse 2

 	   E
There's a card game in the corner
 	 E
And the barmaid smiled at me
 	 A
Well, I tipped her a silver dollar and
    D
she brought me a drink for free
 	 E
All the town-folk call her the cheap one
 	 E
And the gamblers call her the hole
 	  A 	  	      D
Come on, set 'em up again, I got me a friend
      E
And I think I'm gettin' out of control

Repeat Interlude


------------------------------------------------------------------------
Guitar Solo

      Oh    oh   oh             1     1
   +     +     +     +        +     +     +     +       +    +    +    +
e:--------------------------|-------------------------|----------------------|
B:--------------------------|-------------------------|----------------------|
G:-----------------------13-|-14^---14^---13-13----13-|---13\\\-----------13-|
D:-------------------/14----|-------------------14----|---------------/14----|
A:--------------------------|-------------------------|----------------------|
E:--------------------------|-------------------------|----------------------|
                                1     1
e:--------------------------|-------------------------|----------------------|
B:-----------------------10-|-12^---12^---10-10----10-|---10\\\-----------10-|
G:-------------------/13----|-------------------11----|---------------/13----|
D:--------------------------|-------------------------|----------------------|
A:--------------------------|-------------------------|----------------------|
E:--------------------------|-------------------------|----------------------|


------------------------------------------------------------------------
     1     1                                          1     1
   +     +     +     +       +    +    +    +       +     +     +     +
e:-------------------------|----------------------|-------------------------|
B:-------------------------|-------------------10-|-12^---12^---10-10----10-|
G:-14^---14^---13-13----13-|---13\\\-------/13----|-------------------11----|
D:-------------------14----|----------------------|-------------------------|
A:-------------------------|----------------------|-------------------------|
E:-------------------------|----------------------|-------------------------|
     1     1                                          1     1
e:-------------------------|----------------------|-------------------------|
B:-12^---12^---10-10----10-|---10\\\-----------15-|-17^---17^---15-15----15-|
G:-------------------11----|---------------/16----|-------------------16----|
D:-------------------------|----------------------|-------------------------|
A:-------------------------|----------------------|-------------------------|
E:-------------------------|----------------------|-------------------------|


------------------------------------------------------------------------
                            1     1
   +    +    +    +       +     +     +     +       +    +    +    +
e:----------------------|-------------------------|----------------------|
B:---10\\\-----------15-|-17^---17^---15-15----15-|---15\\\-------/15-17-|
G:---------------/16----|-------------------16----|----------------------|
D:----------------------|-------------------------|----------------------|
A:----------------------|-------------------------|----------------------|
E:----------------------|-------------------------|----------------------|
                            1     1
e:-------------------12-|-15^---15^---12-12----12-|---12\\\-------/12-15-|
B:---15\\\-------/15----|-------------------15----|----------------------|
G:----------------------|-------------------------|----------------------|
D:----------------------|-------------------------|----------------------|
A:----------------------|-------------------------|----------------------|
E:----------------------|-------------------------|----------------------|


------------------------------------------------------------------------
                               1                         1           1
   +     +     +     +       +     +     +     +       +     +     +     +
e:-------------------------|-------------------------|-------17-17-------17-17-|
B:-17----15-17-17----15-17-|-17^r--15-17----15-17-15-|-17^---------17^---------|
G:-------------------------|-------------------------|-------------------------|
D:-------------------------|-------------------------|-------------------------|
A:-------------------------|-------------------------|-------------------------|
E:-------------------------|-------------------------|-------------------------|
                               1                         1 hold...   1 hold...
e:-15----12-15-15----12-15-|-15^r--12-15----12-15-12-|-15^---15-15-15^---15-15-|
B:-------------------------|-------------------------|-------------------------|
G:-------------------------|-------------------------|-------------------------|
D:-------------------------|-------------------------|-------------------------|
A:-------------------------|-------------------------|-------------------------|
E:-------------------------|-------------------------|-------------------------|


                                               1     1     1
   +          +          +         +         +     +     +     +       +    +    +    +
e:-----------------------------------------|-15^---15^---15^r--------|----------------------|
B:-19-17---19-17---19-17----19-17--17--17--|-------------------13-15-|---15---15---13-15-13-|
G:-----------------------------------------|-------------------------|----------------------|
D:-----------------------------------------|-------------------------|----------------------|
A:-----------------------------------------|-------------------------|----------------------|
E:-----------------------------------------|-------------------------|----------------------|
                                               1     1     1
e:-14-12---14-12---14-12----14-12--12--12--|-15^---15^---15^r--13-15-|---15---15---13-15-13-|
B:-----------------------------------------|-------------------------|----------------------|
G:-----------------------------------------|-------------------------|----------------------|
D:- 
 Comments (click here to add a non-facebook comment)
Home | FAQs | Privacy | Terms | Contact
Top 100 Tab Sites