Give Kudos?
Are you sure you want to give kudos to WildCard76?

Add To Songbook?
Are you sure you want to add this song to your songbook?


3,380 bands | 16,081 songs
Search: Register FREE! | Login
Browse Songs:
Browse Bands:
Tool Panel
Discuss This Song

1 2 3 4 5





The Eagles - Life In The Fast Lane (Tab)
Submitter: WildCard76 (178) on 8/21/03
Month Views: 19 | Total Views: 2,919
Moderator: fritz | Report This Song?
Song Tools

Comment

Songbook

Kudos

Show Chords

Print

There are 2 ways to play this intro...

E---------------------------------------------
B---------------------------------------------
G-----2---0--------------------2---0----------
D-0h2---2---2p0------------0h2---2---2p0------
A---------------0------------------------0----
E-----------------3-0----------------------3--


or

E-------------------------------------------------------------
B-------------------------------------------------------------
G-------------------------------------------------------------
D------7---5------------------------------7---5---------------
A--5h7---7-----7p5-------------------5h7---7----7p5-----------
E-------------------7--3--0-------------------------7--3------
 Comments (click here to add a non-facebook comment)
Home | FAQs | Privacy | Terms | Contact
Top 100 Tab Sites