Give Kudos?
Are you sure you want to give kudos to matellmon?

Add To Songbook?
Are you sure you want to add this song to your songbook?


3,420 bands | 16,457 songs
Search: Register FREE! | Login
Browse Songs:
Browse Bands:
Tool Panel
Discuss This Song

1 2 3 4 5



The Eagles - I Can't Tell You Why (Tab)
Submitter: matellmon (37) on 2/11/02
Month Views: 8 | Total Views: 4,161
Moderator: fritz | Report This Song?
Song Tools

Comment

Songbook

Kudos

Show Chords

Print

This is the lead part that Don plays in the middle of the song.


|------------|-7-7-5-|------------|-7-7-5-----------|--------------------------|
|------------|-7-7-5-|------------|-7-7-5-----------|--------------------------|
|------------|-7-7-6-|------------|-7-7-6-----------|--------------------------|
|------------|-9-9-7-|------------|-9-9-7-----------|7-h9-p7-h9----------------|
|--------7---|-9-9-7-|--------7---|-9-9-7--------7-9|-----------7-h9-9>5-7-----|
|-7-9-10---7-|-7-7-5-|-7-9-10---7-|-7-7-5-7-9-10----|-----------------------5-7|

|-----------------------------------------|-------------------------------|
|------------>12-12-P10-------------------|-->12-12-P10-------------------|
|----------7-------------11-11---11--9--7-|-------------11-11---11--9--7--|
|------7-9--------------------------------|-------------------------------|
|-7-H9------------------------------------|-------------------------------|
|-----------------------------------------|-------------------------------|

|-----10----------------|-------------------------------|
|->12----12-P10---------|-------------------------------|
|---------------11-9-7--|---7-9-(9)-7-(9-(9)-7-P9-7-----|
|-----------------------|-9--------------------------9--|
|-----------------------|-------------------------------|
|-----------------------|-------------------------------|






And this is the lead part that Don plays at the end of the song...

|------------------------|------------------------|---------------------|
|------------------------|------------------------|----------------->12-|
|-------------7-9->11-7--|-------------7-9->11-7--|-------------7-9-----|
|------7-7-H9------------|------7-7-H9------------|------7-7-H9---------|
|-7-H9-------------------|-7-H9-------------------|-7-H9----------------|
|------------------------|------------------------|---------------------|


|--------------------|--------------------------------|-----(10----------------|
|--------------------|--------------------------------|--------10-12-12--10-12-|
|-7-7-H9-7-7-9->11---|---7->12->12-7-7-H9-7-7-9->11---|---7--------------------|
|------------------7-|-9----------------------------7-|-9----------------------|
|--------------------|--------------------------------|------------------------|
|--------------------|--------------------------------|------------------------|

|-(10---------------(10---------------(12-(12----|-------(10---------------|
|----10-12-12-10-12----10-12-12-10-12---------10-|-10-12----10-12-12-10-12-|
|------------------------------------------------|-------------------------|
|------------------------------------------------|-------------------------|
|------------------------------------------------|-------------------------|
|------------------------------------------------|-------------------------|

|-(10---------------(10-(10---(10-(10---(10-(10---------------|---------------|
|----10-12-12-10-12--------10--------10---------12-10-H12-10>-|---------------|
|-------------------------------------------------------------|-7-9-7---------|
|-------------------------------------------------------------|-------9->11-7-|
|-------------------------------------------------------------|---------------|
|-------------------------------------------------------------|---------------|

|----------------|---------------|----------------|-----------------------------|
|-------------10-|---------------|-------------10-|-----------------------8-P7--|
|-7-9-7----------|-7-9-7---------|-7-9-7----------|-5>7-7>9>7----5>7-7-H9-7---7-|
|-------9->11----|-------9->11-7-|-------9->11----|-5>7-7>9>7----5>7-7-H9-----7-|
|----------------|---------------|----------------|-----------------------------|
|----------------|---------------|----------------|-----------------------------|

|----------------------------|----------------------------|
|---------------------8-P7---|---------------------8-P7---|
|-5>7-7>9>7--5>7-7-H9-7---7--|-5>7-7>9>7--5>7-7-H9-7----7-|
|-5>7-7>9>7--5>7-7-H9-----7--|-5>7-7>9>7--5>7-7-H9------7-|
|----------------------------|----------------------------|
|----------------------------|----------------------------|

In the original studio recording, it just keeps repaeating the last few bars and 
fades out. However, on the Eagle's live album and on "Hell Freezes Over," the 
song ends with a little ditty like this at the end...



       
|-7-7-----------10-|
|-8-7-7--------7---|
|-----7-7-7---7----|
|-------7-9--9-----|
|------------------|
|------------------|

 Comments (click here to add a non-facebook comment)
Home | FAQs | Privacy | Terms | Contact
Top 100 Tab Sites