Give Kudos?
Are you sure you want to give kudos to microsysinc?

Add To Songbook?
Are you sure you want to add this song to your songbook?


3,053 bands | 13,680 songs
Search: Register FREE! | Login
Browse Songs:
Browse Bands:
Tool Panel
Discuss This Song

1 2 3 4 5





The Eagles - Hotel California (outro) (Tab)
Submitter: microsysinc (63) on 6/23/10 2 comments
Month Views: 85 | Total Views: 4,789
Moderator: fritz | Report This Song?
Song Tools

Comment

Songbook

Kudos

Show Chords

Print

Hotel California "Outro"  -  The Eagles (Don Felder) - recorded key of 'Bm'

*** tabbed for 3 guitars  guitar 1 - 12 string Acoustic with CAPO 7
                         - guitar 2 - Lead electric
                         - guitar 3 - Harmony Lead electric
________________________________________________________________________________

  guitar 1 (in relation to CAPO 7)
   Em                                     B7             
e--0----------------------0------------|-------------2----------------|
B--0-------------0----------------0----|----------0--------0----------|
G--0-------0-----------0-------0-------|-------2--------2-------------|
D--2----2-----2-----2------------------|--1-------------------1-------|
A--2-----------------------------------|------------------------------|
E--0-----------------------------------|------------------------------|

   Dsus2                                  A9
e-----------0--------------------------|----------------------0-------|
B--------3-----3--------3--------0-----|----------------0-------------|
G-----2--------------2--------2--------|----------0--------0----------|
D--0--------------0--------------------|-------2-----2----------------|
A--------------------------0-----------|--4---------------------------|
E--------------------------------------|------------------------------|

   C                                      G       
e-----------------------0--------------|-----3-----3-----------3------|
B--------------1-----------------------|-----------------0--------0---|
G--------0-----------0--------------0--|--------0---------------------|
D-----2-----2-----2-----------0h2------|--0-----------0---------------|
A--3-----------------------3-----------|--------------------2---------|
E--------------------------------------|------------------------------|

   Am7                                    B7 
e-----------------------0--------------|----------------------2-------| (repeat)
B--------------1-----1--------------0--|----------0-----0-------------|  (and) 
G--------0--------------------0--------|-------2-----------2----------|  (fade)
D-----2-----2-----2--------2-----2-----|--1----------1----------------|
A--0-----------------------------------|------------------------------|
E--------------------------------------|------------------------------|
                                       ^                              ^
                            ___________^    [Live version ending]     ^__________
                           |  B7                            (A) (B)(F#) Em       |
                           e----------------------2-------|-------------0-0-0-0--|
                           B----------0-----0-------------|-------------0-0-0-0--|
                           G-------2-----------2----------|-------------0-0-0-0--|
                           D--1----------1----------------|---------4---2-2-2-2--|
                           A------------------------------|--0---2------2-2-2-2--|
                           E------------------------------|-------------0-0-0-0--|
______________________________________________________________________________

  guitar 2 (lead)
   Bm                                     F#7^                 (Bb)
e--14-----14-----14-----14-----14------|--12-----12-----12---12/18~~~~|
B----15-----15-----15-----15-----15----|----14-----14-----14----------|
G------16-----16-----16-----16-----16~~|------15-----15---------------|
D--------------------------------------|------------------------------|
A--------------------------------------|------------------------------|
E--------------------------------------|------------------------------|

   Asus2                                  E9                   (Ab)
e--12-----12-----12-----12-----12------|--10-----10-----10---10/16~~~~|
B----14-----14-----14-----14-----14----|----12-----12-----12----------|
G------14-----14-----14-----14-----14~~|------13-----13---------------|
D--------------------------------------|------------------------------|
A--------------------------------------|------------------------------|
E--------------------------------------|------------------------------|

   G                                      D                    (F#)
e--10-----10-----10-----10-----10------|--10-----10-----10---10/14~~~~|
B----12-----12-----12-----12-----12----|----10-----10-----10----------|
G------12-----12-----12-----12-----12~~|------11-----11---------------|
D--------------------------------------|------------------------------|
A--------------------------------------|------------------------------|
E--------------------------------------|------------------------------|

   Em7                                    F#7                 (F#)
e--7------7------7------7------7-------|--9------9------9----9/14~~~~~| (repeat)
B----8------8------8------8------8-----|---11-----11-----11-----------|  (and)
G------9------9------9------9------9~~~|-----11-----11----------------|  (fade)
D--------------------------------------|------------------------------|
A--------------------------------------|------------------------------|
E--------------------------------------|------------------------------|
                                       ^                              ^
                            ___________^    [Live version ending]     ^___________
                           |  F#7                                    Bm           |
                           e--9------9------9------9------9-------|--14-14-14-14--|
                           B---11-----11-----11-----11-----11-----|--15-15-15-15--|
                           G-----11-----11-----11-----11------11--|--16-16-16-16--|
                           D--------------------------------------|--16-16-16-16--|
                           A--------------------------------------|--14-14-14-14--|
                           E--------------------------------------|---------------|
________________________________________________________________________________

guitar 3 (harmony lead)
   Bm                                     F#7^                (F#)
e--10-----10-----10-----10-----10------|--9------9------9----9/14-----|
B----12-----12-----12-----12-----12----|---11-----11-----11-----------|
G------11-----11-----11-----11-----11--|-----11-----11----------------|
D--------------------------------------|------------------------------|
A--------------------------------------|------------------------------|
E--------------------------------------|------------------------------|

   Asus2                                  E9                   (E)
e--9------9------9------9------9-------|--7------7------7----7/12-----|
B---10-----10-----10-----10-----10-----|----9------9------9-----------|
G------9------9------9------9------9---|------9------9----------------|
D--------------------------------------|------------------------------|
A--------------------------------------|------------------------------|
E--------------------------------------|------------------------------|

   G                                      D                    (D)
e--7------7------7------7------7-------|--5------5------5----5/10-----|
B----8------8------8------8------8-----|----7------7------7-----------|
G------7------7------7------7------7---|------7------7----------------|
D--------------------------------------|------------------------------|
A--------------------------------------|------------------------------|
E--------------------------------------|------------------------------|

   Em7                                    F#7                 (C#)
e--3------3------3------3------3-------|--6------6------6----6/9------| (repeat)
B----5------5------5------5------5-----|----7------7------7-----------|  (and)
G------4------4------4------4------4---|------6------6----------------|  (fade)
D--------------------------------------|------------------------------|
A--------------------------------------|------------------------------|
E--------------------------------------|------------------------------|
                                       ^                              ^
                            ___________^    [Live version ending]     ^__________
                           |  F#7                                   Bm           |
                           e--6------6------6------6------6------|--10-10-10-10--|
                           B----7------7------7------7------7----|--12-12-12-12--|
                           G------6------6------6------6------6--|--11-11-11-11--|
                           D-------------------------------------|--9--9--9--9---|
                           A-------------------------------------|---------------|
                           E-------------------------------------|---------------|
________________________________________________________________________________

Chord Chart (Acoustic guitar 1 in relation to CAPO 7)
  Am7  A9   B7    C  Dsus2  Em   G  
e--0----0----2----0----0----0----3--|
B--1----0----0----1----3----0----0--|
G--0----0----2----0----2----0----0--|
D--2----2----1----2----0----2----0--|
A--0----4---------3---------2----2--|
E---------------------------0----3--|

Chord Chart (Lead electric guitar 2)
  Asus2  Bm    D     E9   Em7  F#7^  F#7    G
e--12----14----10----10----7----12----9-----10--|
B--14----15----10----12----8----14----11----12--|
G--14----16----11----13----9----15----11----12--|
D-------(16)------------------------------------|
A-------(14)------------------------------------|
E-----------------------------------------------|

Chord Chart (Harmony Lead electric guitar 3)
  Asus2  Bm    D     E9   Em7  F#7^  F#7    G 
e--9-----10----5-----7-----3----9-----6-----7--|
B--10----12----7-----9-----5----11----7-----8--|
G--9-----11----7-----9-----4----11----6-----7--|
D-------(9)------------------------------------|
A----------------------------------------------|
E----------------------------------------------|
 Comments (click here to add a non-facebook comment)
Man, you put in some work on this one. Nice job. KK.
-kraziekhat | 6/24/2010
Very well done,,, as usual!!!!!
-aussief | 6/25/2010
Home | FAQs | Privacy | Terms | Contact
Top 100 Tab Sites