Give Kudos?
Are you sure you want to give kudos to guitarviper?

Add To Songbook?
Are you sure you want to add this song to your songbook?


3,422 bands | 16,457 songs
Search: Register FREE! | Login
Browse Songs:
Browse Bands:
Tool Panel
Discuss This Song

1 2 3 4 5



The Eagles - Already Gone (Lead)
Submitter: guitarviper (7) on 2/10/03
Month Views: 25 | Total Views: 4,215
Moderator: fritz | Report This Song?
Song Tools

Comment

Songbook

Kudos

Show Chords

Print

Already Gone - Lead
Eagles
Tabbed by Guitarviper

This solo is comprised of two guitars. Instead of tabbing it for one, I tabbed out both parts.
The two guitars are not exactly lined up, but are relatively close to it.I'm starting it 
around 01:55 in the song, right after last "woo who who."

|Guitar 1:
|----------------------------10br(10)---------------------------------------------------------------
|--------------------------8----------10br-8--10-10--------------------13-15b-15b-------15br-13-13--
|------------------5-7/8/9-------------------------------------9-12/14------------------------------
|--------5---5/6/7----------------------------------------------------------------------------------
|--3-5/7---x----------------------------------------------------------------------------------------
|---------------------------------------------------------------------------------------------------
|Guitar 2:
|---------------------------------------------------------------------------------------------------
|---------------------------------------------------------------------------------------------------
|----------------------------14b---------(14)---------(14)-12---------------------(12)\5\-----------
|---------------------------------------------------------------------------------------------------
|---------------------------------------------------------------------------------------------------
|---------------------------------------------------------------------------------------------------

|Guitar 1:
|---------------------------------------------------------------------------------------------------
|------------------------------------------------------------------------------------13-15-15b-/17--
|--12--14/16---------0-0-12--12\0-0--10-14-------------------12----15b--x-x-12/13/14----------------
|------------------------------------------12-12-10-10-12/14-----------x----------------------------
|---------------------------------------------------------------------------------------------------
|---------------------------------------------------------------------------------------------------
|Guitar 2:
|---------------------------------------------------------------------------------------------------
|---------------------------------------------------------------------------17----------------------
|----------------14b-----------------(14)brbrbrbr-------12------------------------------------------
|---------------------------------------------------------------------------------------------------
|------------------------------------------------------------------------------------14--------14---
|---------------------------------------------------------------------------------------------------

|Guitar 1:
|-------------------15------------17----------------------------------------------------------------
|--15b-----------15-----18b-17b-----17br-15-15-----------------13-13-----15br----------------11h12--
|------12/14/16------------------------------------------12/14--------14------12-14brbr-------------
|--------------------------------------------------12-12--------------------------------------------
|---------------------------------------------------------------------------------------------------
|---------------------------------------------------------------------------------------------------
|Guitar 2:
|-----------------------------------------------17b-17----15----15--------12------------15-17-------
|---------------------------------------------------------------------------------13/15-------------
|--12--12/14/16-14b-------------14------------------------------------------------------------14b---
|---------------------------------------------------------------------------------------------------
|---------------------------------------------------------------------------------------------------
|---------------------------------------------------------------------------------------------------

|Guitar 1:
|----------------------------------------------------------------------------------
|---------------------------------------13--------13---------------13--------------
|--12-12-0-0-10h11-----------------------------------------------------------------
|------------------12-12-----12b-(12)b-----10-12b----10-----10-12b----10-10--------
|---------------------------------------------------------------------------12-10--
|----------------------------------------------------------------------------------
|Guitar 2:
|------------------------17b-----------------------------------15------------------
|----------------------------------------------------------------------------------
|------------(14)---------------------------------------(14)-----------------------
|----------------------------------------------------------------------------------
|----------------------------------------------------------------------------------
|----------------------------------------------------------------------------------
 Comments (click here to add a non-facebook comment)
Home | FAQs | Privacy | Terms | Contact
Top 100 Tab Sites