Give Kudos?
Are you sure you want to give kudos to guitarviper?

Add To Songbook?
Are you sure you want to add this song to your songbook?


3,430 bands | 16,491 songs
Search: Register FREE! | Login
Browse Songs:
Browse Bands:
Tool Panel
Discuss This Song

1 2 3 4 5



The Eagles - Already Gone (Intro)
Submitter: guitarviper (10) on 2/5/03 2 comments
Month Views: 17 | Total Views: 4,571
Moderator: fritz | Report This Song?
Song Tools

Comment

Songbook

Kudos

Show Chords

Print

Already Gone - Intro
Eagles
Tabbed by Guitarviper

Intro:
-----------------------------------------------------------------------------------
------------------3---3--3--3---3---3---3-0-3-------1---1---1--5/6/8-6/8--8\6-5----
-----------0-2-0--2b--2b-2b-2br-0---0-2-2-0-0---0---0---0---0--5/7/9-7/9--9\7-5----
-----0-2-4------------------------2---------4p2-0-0-0h2---2---------------------7--
---4-------------------------------------------------------------------------------
-----------------------------------------------------------------------------------
          (*)
--/5-5--------5------------------------------------------------------
--/5-5-6-6----5-3-1-0--0h1-0-3---3-3-5-6-6-6-5-6-5-5-----------------
-------7-7-7----4-2-0--0h2-0-2---0-0-5-5-5-5-5-5-5-5-5-5-5-5---------
-----------7-----------------4p2-0-0-5-7-7-7-5-7-5-5-5-5-5-5---------
---------------------------------------------------------------------
--------------------------------------------------------------0-1-0--

          (*)=Another guitar kicks in here, and plays below
         ---------------------------------------------------
         ---------------------------------------------------
         ---------------------------------------------------
         -----------------------------------7b-7-5----------
         ---------5-7br-5------------3-5/7------------------
         --3--5/7-------------------------------------------

 Comments (click here to add a non-facebook comment)
Would it be possible for you to put up a sound byte for this? Maybe
both slowed down and up to speed. I've always wanted to learn this
but I'm not getting it.
-DaveWH | 2/26/2003
Get windows media player and you can slow the songs down without losing the pitch, it works very well.
-innagodda | 4/27/2004
Home | FAQs | Privacy | Terms | Contact
Top 100 Tab Sites