Give Kudos?
Are you sure you want to give kudos to Rondo Fondu?

Add To Songbook?
Are you sure you want to add this song to your songbook?


3,412 bands | 16,398 songs
Search: Register FREE! | Login
Browse Songs:
Browse Bands:
Tool Panel
Discuss This Song

1 2 3 4 5





The Doors - Roadhouse Blues For Solo Acoustic (Tab)
Submitter: Rondo Fondu (10) on 5/12/04 1 comment
Month Views: 6 | Total Views: 4,926
Moderator: bigrig1999 | Report This Song?
Song Tools

Comment

Songbook

Kudos

Show Chords

Print

Roadhouse Blues
Words by Jim Morrison

Music by The Doors

Gtr I Acoustic

 Intro
  Moderate shuffle Q=110(8=s8)
  N.C.
 4/4
  Gtr I
              |-3-|                                 |-3-|               |-3-|
  E E E E E E E E E   E E E E E E E E   E E E E E E E E E   E E E E E E E E E
|-------------------|-----------------|-------------------|--------------------|
|-------------------|-----------------|-------------------|--------------------|
|-------------------|-----------------|-------------------|--------------------|
|-------------------|-----------------|-------------------|--------------------|
|-------------------|-------------5s7-|-------------------|-------------5h6h7--|
|-0-0-0-0-0-0-5h6h7-|-0-0-0-0-0-0-----|-0-0-0-0-0-0-5h6h7-|-0-0-0-0-0-0--------|


  E E E E E E E    +E     E E E E E E E E   E E E E E E E E   E E E E E E E E
|-----------------------|-----------------|-----------------|------------------|
|-----------------------|-----------------|-----------------|------------------|
|-----------------------|-----------------|-----------------|------------------|
|-----------------------|-----------------|-----------------|------------------|
|-----------------------|-------------5s7-|-----------------|-------------5s7--|
|-0-0-0-0-0-0-2b4==(2)r-|-0-0-0-0-0-0-----|-0-0-0-0-0-0-5s7-|-0-0-0-0-0-0------|


  E E E E E E E E   E E E E E E E E   E E E E E E E E   E E E E E E E E
|-----------------|-----------------|-----------------|------------------||
|-----------------|-----------------|-----------------|------------------||
|-----------------|-----------------|-----------------|------------------||
|-----------------|-----------------|-----------------|------------------||
|-------------5s7-|-------------5s7-|-----------------|-------------5s7--||
|-0-0-0-0-0-0-----|-0-0-0-0-0-0-----|-0-0-0-0-0-0-5s7-|-0-0-0-0-0-0------||


 1st Verse
                                                  |-3-|            |-3-|
  E E E E E E E E   E E E E E E E E   E E E E E E E E E   Q  E a E E E E E E
|-----------------|-----------------|-------------------|--------------------|
|-----------------|-----------------|-------------------|--------------------|
|-----------------|-----------------|-------------------|-0------------------|
|-----------------|-----------------|-------------0h1h2-|----2-0h2-2p0---0---|
|-------------5s7-|-------------5s7-|-------------------|--------------2---2-|
|-0-0-0-0-0-0-----|-0-0-0-0-0-0-----|-0-0-0-0-0-0-------|--------------------|


              |-3-|
  E E E E E E E E E   E E E E E E E E
|-------------------|-----------------|
|-------------------|-----------------|
|-------------------|-----------------|
|-------------------|-----------------|
|-------------0h1h2-|-------------5s7-|
|-0-0-0-0-0-0-------|-0-0-0-0-0-0-----|


              |-3-|      |-3-|  |-3--|
  E E E E E E E E E   Q  E E E +E  E E Q
|-------------------|----------------------|
|-------------------|----------------------|
|-------------------|-0--------------------|
|-------------0h1h2-|-0--2p0-2-(2)p0---0---|
|-------------------|----------------2-----|
|-0-0-0-0-0-0-------|----------------------|


                                   ~~~~~~
  E E E E E E E E   +E  E E E Q  E E
|-----------------|---------------------|
|-----------------|---------------------|
|-----------------|---------------------|
|-0---0---0-----2-|-(2)-2-0-0----0------|
|---2---2---2-----|-----------2---------|
|-----------------|----------------3b4==|


 ~~~~~~
                 |-3-|             |-3--|
  +Q    E E +Q   E E E   Q  E a E +E  E E Q
|----------------------|---------------------|
|----------------------|---------------------|
|----------------------|-0-------------------|
|----------------------|----2-0h2-(2)p0---0--|
|----------------0h1h2-|----------------2----|
|-(3)r--0-0-(0)--------|---------------------|


                       E7
           |-3--|                 |-3-|
  E E E E +E  E E Q    E E E E Q  E E E   E E E E +Q   E E   E E E E +Q   E E
|-------0-(0)-0-0----|---0---0-0--------|---0---0-(0)------|---7---7-(7)-------|
|-x-x-x-5-(5)-5-5----|-x-3---3-3--------|-x-3---x-(x)------|-x-5---5-(5)-------|
|-x-x-x--------------|-x-1---1-1--------|-x-1---x-(x)------|-x-7---7-(7)-------|
|-x-x-x-----------0--|-x-2---2-2--------|-x-2---x-(x)------|-x-6---6-(6)-------|
|--------------------|------------5h6h7-|--------------5s7-|--------------5s7--|
|--------------------|------------------|------------------|-------------------|


  E E E E +Q   E E   E E E E +Q   E E
|---7---7-(7)------|---7---7-(7)------|
|-x-5---5-(5)------|-x-5---5-(5)------|
|-x-7---7-(7)------|-x-7---7-(7)------|
|-x-6---6-(6)------|-x-6---6-(6)------|
|--------------5s7-|--------------5s7-|
|------------------|------------------|


           |-3--|                 |-3--|
  E E E E +E  E E E E   Q  E a E +E  E E E E
|---0-----------------|----------------------|
|-x-3---3-(3)---------|----------------------|
|-x-1---1-(1)---------|-0--------------------|
|-x-2---2-(2)-0---0---|----2-0h2-(2)p0---0---|
|---------------2---2-|----------------2---2-|
|---------------------|----------------------|


  E E E E +Q   E E   E e E E +Q   Q
|---0---0-(0)------|---7---7-(7)-----|
|---3---3-(3)------|-x-5---5-(5)-----|
|-x-1---1-(1)------|-x-7---7-(7)-----|
|-x-2---2-(2)------|-x-6---6-(6)-----|
|-x------------5s7-|--------------5--|
|------------------|-----------------|


           |-3--|                 |-3--|
  E E E E +E  E E E E   Q  E a E +E  E E E E
|---7---7-(7)---------|----------------------|
|-x-5---5-(5)---------|----------------------|
|-x-7---7-(7)---------|-0--------------------|
|-x-6---6-(6)---------|-0--2-0h2-(2)p0---0---|
|-------------0h1-0h2-|----------------2---2-|
|---------------------|----------------------|


                                   ~~~
  E E E E E E E E   +E  E E E Q  E E
|-----------------|------------------|
|-----------------|------------------|
|-----------------|------------------|
|-0---0---0-----2-|-(2)-2-0-0----0---|
|---2---2---2-----|-----------2------|
|-----------------|----------------3-|


 ~~~~~
                 |-3-|
  +Q   E E +E  E E E E   Q  E a E +Q      Q
|----------------------|------------------------||
|----------------------|------------------------||
|----------------------|-0----------------------||
|----------------------|----2-0h2-(2)--/(14)\---||
|----------------0h1h2-|------------------------||
|-(3)--0-0-(0)-0-------|------------------------||


 Chorus
  E E E E E E E E   E E E E E E E E   +E  E E E E E E E   E E E E E E E E
|-----------------|-----------------|-------------------|------------------|
|-----------------|-----------------|-------------------|------------------|
|-----------------|-----------------|-------------------|------------------|
|---------2---4-2-|---------2---4-2-|-(2)-2-----2---4-2-|---------2---4-2--|
|-0-0-3-4---0-----|-0-0-3-4---0-----|-------3-4---0-----|-0-0-3-4---0------|
|-----------------|-----------------|-------------------|------------------|


  E E E E E E E E   E E E E E E E E
|-----------------|-----------------|
|-----------------|-----------------|
|-----------------|-----------------|
|---------2---4-2-|---------2---4---|
|-0-0-3-4---0-----|-0-0-3-4---0-----|
|-----------------|-----------------|


  B                           C        B
  |-3-| |-3-| |-3-| |-3--|     |--3--|
  E E E E E E E E E E E +E     q  q  q E E Q
|---------------------------|----------7------|
|---------------------------|----------7------|
|-8-8-8-8-8-8-8-8-8-8-8-(8)-|--9--9--9-8------|
|-9-9-9-9-9-9-9-9-9-9-9-(9)-|-10-10-10-9------|
|-9-9-9-9-9-9-9-9-9-9-9-(9)-|-10-10-10-9------|
|-7-7-7-7-7-7-7-7-7-7-7-(7)-|--8--8--8-7------|


 Guitar Solo
   |--3--|  |--3--|  |--3--|  |---3----|    |---3----|  |---3----|  |---3---
 Comments (click here to add a non-facebook comment)
Great song,, well done!!!
-aussief | 4/2/2010
Home | FAQs | Privacy | Terms | Contact
Top 100 Tab Sites