Give Kudos?
Are you sure you want to give kudos to EMRLDEYZS?

Add To Songbook?
Are you sure you want to add this song to your songbook?


3,420 bands | 16,455 songs
Search: Register FREE! | Login
Browse Songs:
Browse Bands:
Tool Panel
Discuss This Song

1 2 3 4 5



The Byrds - Turn, Turn, Turn (Chord)
Album: Turn! Turn! Turn! (1965)
Submitter: EMRLDEYZS (108) on 11/16/04
Month Views: 8 | Total Views: 3,495
Moderator: jackshaw3 | Report This Song?
Song Tools

Comment

Songbook

Kudos

Show Chords

Print

Tabbed By: Emrldeyzs


INTRO:

 (D)  (G)   (F#5)    (EmD6 A    (D)   (G)   (F#5)    (EmD6 A
 4/4
  Gtr I
|---------------|--------7--5--|----------------|--------7--5--|
|---------------|--------7--5--|----------------|--------7--5--|
|---------------|--------7--6--|----------------|--------7--6--|
|-0--2-2-(2)----|-(2)----7--7--|-0---2-2-(2)----|-(2)----7--7--|
|---------------|--------------|----------------|--------------|
|---------------|--------------|----------------|--------------|

  (D)   (G)     (F#5)     (Em)  D6  A
|-------------------|-----------7---5---|
|-------------------|-----------7---5---|
|-------------------|-----------7---6---|
|-0---2-2-(2)---4---|-(4)-0-----7---7---|
|-------------------|-------------------|
|-------------------|-------------------|

  (D)   (G)     (F#5)     (Em)  D6  A
|-------------------|-----------7---5----||
|-------------------|-----------7---5----||
|-------------------|-----0-----7---6----||
|-0---2-2-(2)---4---|-(4)-------7---7----||
|-------------------|--------------------||
|-------------------|--------------------||


CHORUS:

        Dadd9/F# G6   Dadd9/F# A Asus4 
To every thing,  turn, turn,   turn,
          Dadd9/F# G6   Dadd9/F# A Asus4
There is a season, turn, turn,  turn,
      G6   Dadd9/F# Em     Asus4  D Dsus4  D  
And a time to every purpose under heaven

VERSE 1:

Dsus4        Asus4  A        D Dsus4 D
A time to be born, a time to die
Dsus4     Asus4  A         D Dsus4 D
A time to plant, a time to reap
Dsus4     Asus4  A        D Dsus4  D 
A time to kill, a time to heal
  G6      Dadd9/F# Em Asus4   D Dsus4  D   
A time to laugh,   a  time to weep

CHORUS:

VERSE 2:

A time to build up, a time to break down
A time to dance, a time to mourn
A time to cast away stones
A time to gather stones together

CHORUS:

VERSE 3:

A time of love, a time of hate
A time of war, a time of peace
A time you may embrace
A time to refrain from embracing


LEAD:  

Dadd9 G6 Dadd9/F#  Asus4 2 x's  

G6  Dadd9/F#  Em7  D  D   G6   G   

A   A7sus4    Dadd9   Dsus4   3 x's 

G6  Dadd9/F#  Em7  D  Dsus4  D
 

CHORUS:

VERSE 4:

A time to gain, a time to lose
A time to rend, a time to sew
A time to love, a time to hate
----------------

chords:
D9/F# 200230
G6    320000 
 Comments (click here to add a non-facebook comment)
Home | FAQs | Privacy | Terms | Contact
Top 100 Tab Sites