Give Kudos?
Are you sure you want to give kudos to Mjagg?

Add To Songbook?
Are you sure you want to add this song to your songbook?


3,408 bands | 16,377 songs
Search: Register FREE! | Login
Browse Songs:
Browse Bands:
Tool Panel
Discuss This Song

1 2 3 4 5





The Black Keys - Your Touch (Tab)
Submitter: Mjagg (4) on 11/20/08 1 comment
Month Views: 7 | Total Views: 5,637
Help! We need a moderator for this artist. | Report This Song?
Song Tools

Comment

Songbook

Kudos

Show Chords

Print

Your Touch (Tab)
By: The Black Keys
Album: Magic Potion
Submitted By: Mjagg	
Submission Date: 11-20-08


INTRO/OUTRO:

E|------------------------------------------|
B|------------------------------------------|
G|------------------------------------------|  X 2
D|------------------------------------------|
A|------------3b--0---5-5-5-5-5--3--5--3b---|
E|---5---3-0--------------------------------|





VERSE:

     A            D  C  C  C     A
E|-----------------------------------|
B|---2--x-x-x--------------------2---|
G|---2--x-x-x-----7--5--5--5--0--2---|
D|---2--x-x-x-----7--5--5--5--0--2---| This repeats over and over through 
A|---0--x-x-x-----5--3--3--3-----0---| the verse.
E|-------------0---------------------|




CHORUS:

    E    A          D  C  C  C     A     E     A          D  C  C  C     A
E|-------------------------------------|-------------------------------------|
B|-------2-------------------------2---|-------2-------------------------2---|
G|-------2----------7--5--5--5--0--2---|-------2----------7--5--5--5--0--2---|
D|-------2----------7--5--5--5--0--2---|-------2----------7--5--5--5--0--2---|  
A|-------0--3b--0---5--3--3--3-----0---|-------0--3b--0---5--3--3--3-----0---|   
E|-12\---------------------------------|-12\---------------------------------|

The above riff repeats during the chorus.




Below is my best shot at making out the lyrics. :o)


Lyrics:


What I want 
you got it 
So much 
I'm crazy for 

your touch 
your touch 
your touch 
your touch 

Well I'll be good
Like I should 
Waiting is such
Misery, I need

your touch 
your touch 
your touch 
your touch 

Oh lordy lord
I got excited now
Please rush
I need

your touch 
your touch 
your touch 
your touch 




This is an insanely simple song to play.  But it's got 
a really cool groove and is a lot of fun to jam to. 
Listen to the track and you'll see it's just a 
conglomeration of the above riffs.  Any simple 
bluesy solo from Am pentatonic would work for it.  
Just have fun with it, it's a great song.
 Comments (click here to add a non-facebook comment)
Well done!!
-aussief | 7/7/2009
Home | FAQs | Privacy | Terms | Contact
Top 100 Tab Sites