Give Kudos?
Are you sure you want to give kudos to microsysinc?

Add To Songbook?
Are you sure you want to add this song to your songbook?


3,032 bands | 13,496 songs
Search: Register FREE! | Login
Browse Songs:
Browse Bands:
Tool Panel
Discuss This Song

1 2 3 4 5





The Beatles - Something (in The Way She Moves) Complete (Tab)
Submitter: microsysinc (46) on 5/12/11 2 comments
Month Views: 1,030 | Total Views: 15,570
Moderator: EMRLDEYZS | Report This Song?
Song Tools

Comment

Songbook

Kudos

Show Chords

Print

Something (in the way she moves)  -  The Beatles (1969 – Abbey Road Album)
          (recorded key of C major  -  written by George Harrison)

Video:  Original  http://www.youtube.com/watch?v=xzkhOmKVW08

*** tabbed for two electric guitars – guitar 1 – lead w/distortion ***
***                                 - guitar 2 – rhythm clean      ***

  riff 1 (attack after bend)             riff 2 (C7 chord) 
   A   (B)  C  B  A   Bb~~B~~ C~~         E C  E C  C [C7~]
e---------------------------------|    e---------------0~~|
B--10--(12)b13r12-10--11~~12~~13~~|    B----1----1-----1~~|
G---------------------------------|    G---------------3~~|
D---------------------------------|    D--2----2-------2~~|
A---------------------------------|    A------------3--3~~|
E---------------------------------|    E------------------|

  riff 3           riff 4 (G* chord)      riff 5               riff 6         
   F  E  D~~     [F#^G^] G D [F#^G^]       D  D  D  E~~         D  E~~ 
e-----------|    e--2/3--3----2/3~~|    e---------------|    e---------|
B-----------|    B--2/3----3--2/3~~|    B---------------|    B---------|
G-----------|    G--3/4-------3/4~~|    G---------------|    G---------|
D--3--2--0~~|    D-----------------|    D--12-12-12/14~~|    D--12/14~~|
A-----------|    A-----------------|    A---------------|    A---------|
E-----------|    E-----------------|    E---------------|    E---------|

  riff 7 (attack after bend)
   A   (B)  C  B  A   Bb~~B~~ C#~~
e---------------------------------|
B--10--(12)b13r12-10--11~~12~~14~~|
G---------------------------------|
D---------------------------------|
A---------------------------------|
E---------------------------------|

  riff 8 (attack after bend)
   C# Ab Ab  G  F#~~   A   (B)  C  B  A   Bb~~B~~ Am7^~~ 
e-----16-16--15-14~~|-----------------------------------|
B--14---------------|--10--(12)b13r12-10--11~~12~~13~~~~|
G-------------------|-----------------------------12~~~~|
D-------------------|-----------------------------14~~~~|
A-------------------|-----------------------------------|
E-------------------|-----------------------------------|

Instrumental solo  at  01:42
   D  E  G  E~~    D  E  G  A  G  A  G  E~~    D  E  G  A  G   A  Bb C  C
e---------------|---------------------------|-------------------------------|
B---------------|---------------------------|------------------------13-13--|
G--------12-----|--------12b14-12b14r12-----|--------12h14-12--14/15--------|
D--12h14----14~~|--12h14----------------14~~|--12h14------------------------|
A---------------|---------------------------|-------------------------------|
E---------------|---------------------------|-------------------------------|
   D  E   D  E  D  C  A~~    G  A  C  C  A   D  E  G  G  E~~
e-------------------------|---------------------------------|
B--15b17--15b17r15-13-----|--------13-13\10-----------------|
G---------------------14~~|--12/14-----------------12-12\9--|
D-------------------------|------------------12/14----------|
A-------------------------|---------------------------------|
E-------------------------|---------------------------------|
   B A B D  F# F# A  B  A      A  B  A  B  A  G~~   A  B  Bb A  D  E  Eb D~~
e---------------------------|--------------------|--------------10/12-11-10~~|
B-----------------10b12r10--|--10b12r10b12r10-8~~|--10/12-11-10--------------|
G-----------11-11-----------|--------------------|---------------------------|
D--9p7-9/12-----------------|--------------------|---------------------------|
A---------------------------|--------------------|---------------------------|
E---------------------------|--------------------|---------------------------|
   D E D E D C~~   D E D E D E D C~~   D E D E D C     D E A  D  E  D  C D   C  A~~
e---------------|-------------------|---------------|---------10/12-10-8h10--8------|
B---------------|-------------------|---------------|------10-------------------10~~|
G--7b9r7b9r7-5~~|--7b9r7b9r7b9r7-5~~|--7b9r7b9r7-5--|--7/9--------------------------|
D---------------|-------------------|---------------|-------------------------------|
A---------------|-------------------|---------------|-------------------------------|
E---------------|-------------------|---------------|-------------------------------|

Intro
(drum riff) 

(riff 1) w/[F  Eb  G*  C]

Verse 1
                                 (riff 2) 
C                          Cmaj7
Something in the way…  she moves…
                                    (riff 3) 
C7                            F     Fmaj7  Cmaj7/11
  Attracts me like…  no other lover…
                                       (riff 4)
D                D7        G           G7
Something in the way…  she woo…oo…oo…s me…

Chorus
                              (riff 5) 
Am                        Ammaj7
I don't want to leave her now…
                           (riff 6)
    Am7                D7
You know I believe and how…

(riff 1) w/[F  Eb  G*  C]

Verse 2
Somewhere in her smile…  she knows…
That I don't need no other lover…
Something in her style that… shows me…

Repeat Chorus

(riff 7) w/[F  Eb  G*  A*~~~~]

Bridge
A*              C#m             F#m    A 
  You're asking me will my love grow…
                             [A*  G#*  G*  F#  F  E]
          D        G         [A]
  I don't know…ow… I…  don't know…
A*           C#m                F#m    A
  You stick around now…  it may show…
                             [C*  B*  Bb*  A*  G#*  G*]  
          D        G         [C] 
  I don't know…ow… I…  don't know…

Instumental solo w/ Verse chords  [C  Cmaj7]
                                  [C7  F  Fmaj7  Cmaj7/11]
                                  [D  D7  G  G7]
                 w/ Chorus chords [Am  Ammaj7]
                                  [Am7  D7]

(riff 1) w/[F  Eb  G*  C]

Verse 3
Something in the way…  she knows…
And all I have to do…  is think of her…
Something in the things she… shows me…

Repeat Chorus

Outro
(riff 7)

(riff 8)

Chord Chart (notes in parentheses are not played)
   A    A*  Am   Am7  Am7^ Ammaj7 Bb*  B*   C   C* Cmaj7 Cmaj7/11 C7  C#m   D
e--0----5----0----0---(12)---0----6----7----0----8----0-----0-----0----4----2--|
B--2----5----1----1----13----1----6----7----1----8----0-----0-----1----5----3--|
G--2----6----2----0----12----1----7----8----0----9----0-----2-----3----6----2--|
D--2----7----2----2----14----2----8----9----2----10---2-----3-----2----6----0--|
A--0----7----0----0---(12)---0----8----9----3----10---3-----3-----3----4-------|
E-------5-------------------------6----7----3----8----3------------------------|

   D7   E    Eb   F  Fmaj7  F#  F#^  F#m   G    G^   G*   G7   G#*      Legend
e--2----0----3----1----0----2----2----2----3----3----3----1----4--|  ~  =  let ring
B--1----0----4----1----1----2----2----2----0----3----3----0----4--|  h  =  hammer
G--2----1----3----2----2----3----3----2----0----4----4----0----5--|  b  =  bend
D--0----2----5----3----3----4---(4)---4----0---(5)---5----0----6--|  r  =  release
A-------2----6----3----3----4---(4)---4----2---(5)---5----2----6--|  p  =  pull off
E-------0---------2---------2---(2)---2----3---(3)---3----3----4--|  /  =  slide up
                                                                     \  =  slide down
*** tabbed by microsysinc at rock.totaltabs.com ***
 Comments (click here to add a non-facebook comment)
Classic Beatles,,, Great work,,, very well done!!!!!
-aussief | 5/13/2011
Very nice. KK.
-kraziekhat | 6/7/2011
Home | FAQs | Privacy | Terms | Contact
Top 100 Tab Sites