Give Kudos?
Are you sure you want to give kudos to pjvill?

Add To Songbook?
Are you sure you want to add this song to your songbook?


3,391 bands | 16,216 songs
Search: Register FREE! | Login
Browse Songs:
Browse Bands:
Tool Panel
Discuss This Song

1 2 3 4 5





The Beatles - Blackbird (Tab)
Submitter: pjvill (5) on 11/26/05
Month Views: 15 | Total Views: 3,745
Moderator: EMRLDEYZS | Report This Song?
Song Tools

Comment

Songbook

Kudos

Show Chords

Print

------------------------------------------------------------------


  THE BEATLES - BLACKBIRD (Lennon/McCartney) From THE WHITE ALBUM.
                Released on 22nd November 1968.


------------------------------------------------------------------

  Tabbed by:PJVillanueva





Blackbird singing in the dead of night
Take these broken wings and learn to fly
All your life
You were only waiting for this moment to arise.

Blackbird singing in the dead of night
Take these sunken eyes and learn to see
All your life
You were only waiting for this moment to be free.

Blackbird fly Blackbird fly
Into the light of the dark black night.

Blackbird fly Blackbird fly
Into the light of the dark black night.

Blackbird singing in the dead of night
Take these broken wings and learn to fly
All your life
You were only waiting for this moment to arise
You were only waiting for this moment to arise
You were only waiting for this moment to arise.




  G               Am              G
e|------- ------- ------- -------|------- -------|
B|0---------------1--------------|3-------/------|
G|--------0---------------0------|---------------|
D|-------------------------------|---------------|
A|----------------0--------------|2-------/------|
E|3------------------------------|---------------|

                                    
 
e|------- ------- ------- -------|------- ------- ------- -------|
B|12----------------------12-----|12---------12------------------|
G|--------0---0---0---0----0-----|--------0---0---0---0---0------|
D|-------------------------------|-------------------------------|
A|10-----------------------------|10-----------------------------|
E|-------------------------------|-------------------------------|


                  Am              G
e|------- ------- ------- -------|------- -------|
B|0---------------1--------------|3-------/------|
G|--------0---------------0------|---------------|
D|-------------------------------|---------------|
A|----------------0--------------|2-------/------|
E|3------------------------------|---------------|
  Blackbird       singing in the  dead of         


e|------- ------- ------- -------|------- ------- ------- -------|
B|12----------------------12-----|12---------12------------------|
G|--------0---0-------0----0-----|--------0---0-------0---0------|
D|-------------------------------|-------------------------------|
A|10--------------10-------------|10--------------10-------------|
E|-------------------------------|-------------------------------|
  night

  C               C#dim           Dsus4           Ebdim                   
e|------- ------- 3------ -------|------- ------- 5------ -------|
B|5------------------------------|7------------------------------|
G|--------0---------------0------|--------0---------------0------|
D|-------------------------------|-------------------------------|
A|3---------------4--------------|5---------------6--------------|
E|-------------------------------|-------------------------------|
  Take    these   broken wings            and     learn   to fly

  Em                              Eb
e|------- ------- ------- -------|------- ------- ------- -------|
B|8------------------------------|8-------8----------------------|
G|--------0---0-------0---0------|--------0---0-------0---0------|
D|-------------------------------|-------------------------------|
A|7---------------7--------------|6---------------6--------------|
E|-------------------------------|-------------------------------|


  Dsus4           C#dim           C
e|------- ------- 3------ -------|------- ------- ------- -------|
B|7------------------------------|5------------------------------|
G|--------0---------------0------|--------0---0-------0---0------|
D|-------------------------------|-------------------------------|
A|5---------------4--------------|3---------------3--------------|
E|-------------------------------|-------------------------------|
  All         your        life

  Cm                              G
e|------- ------- ------- -------|------- ------- ------- -------|
B|4------------------------------|3------------------------------|
G|--------0---0-------0---0------|--------0-----------0---0------|
D|-------------------------------|-------------------------------|
A|3---------------3--------------|2---------------2--------------|
E|-------------------------------|-------------------------------|
                                  you were        only        waiting

  A7                              D7sus2
e|------- ------- ------- -------|------- ------- ------- -------|
B|2------------------------------|1------------------------------|
G|--------0-----------0---0------|--------0-----------0---0------|
D|-------------------------------|0---------------0--------------|
A|0---------------0--------------|-------------------------------|
E|-------------------------------|-------------------------------|
                  for this    moment              to  arise

  G                               C               G
e|------- ------- ------- -------|------- ------- ------- -------|
B|0------------------------------|5---------------3--------------|
G|--------0---0-----------0------|--------0---------------0------|
D|-------------------------------|-------------------------------|
A|-------------------------------|3---------------2--------------|
E|3---------------3--------------|-------------------------------|


  A7                              D7sus2
e|------- ------- ------- 0------|------- ------- ------- 0------|
B|2-----------------------2------|1-----------------------1------|
G|--------0---0-------0---0------|--------0---0-------0---0------|
D|-------------------------------|0---------------0--------------|
A|0---------------0--------------|-------------------------------|
E|-------------------------------|-------------------------------|



  G
e|------- ------- ------- -------|
B|0------------------------------|
G|--------0---0-------0---0------|
D|-------------------------------|
A|-------------------------------|
E|3---------------3--------------|



  G               Am              G
e|------- ------- ------- -------|------- -------|
B|0---------------1--------------|3-------/------|
G|--------0---------------0------|---------------|
D|-------------------------------|---------------|
A|----------------0--------------|2-------/------|
E|3------------------------------|---------------|     
  Blackbird       singing in the  dead of

         

e|------- ------- ------- -------|------- ------- ------- -------|
B|12----------------------12-----|12-----------------------------|
G|--------0---0-------0----0-----|--------0-----------0---0------|
D|-------------------------------|-------------------------------|
A|10--------------10-------------|10-------------10--------------|
E|-------------------------------|-------------------------------|
  night

  C               C#dim           Dsus4           Ebdim
e|------- ------- 3------ -------|------- ------- 5------ -------|
B|5------------------------------|7------------------------------|
G|--------0---------------0------|--------0---------------0------|
D|-------------------------------|-------------------------------|
A|3---------------4--------------|5---------------6--------------|
E|-------------------------------|-------------------------------|
  Take    these   sunken eyes             and learn       to  see

  Eb                              Em
e|------- ------- ------- -------|------- ------- ------- -------|
B|8-------------------8---8------|8-------8---8-------8---8------|
G|--------0---0-------0---0------|--------0---0-------0---0------|
D|-------------------------------|-------------------------------|
A|7---------------7--------------|6----------
 Comments (click here to add a non-facebook comment)
Home | FAQs | Privacy | Terms | Contact
Top 100 Tab Sites