Give Kudos?
Are you sure you want to give kudos to aussief?

Add To Songbook?
Are you sure you want to add this song to your songbook?


3,408 bands | 16,356 songs
Search: Register FREE! | Login
Browse Songs:
Browse Bands:
Tool Panel
Discuss This Song

1 2 3 4 5





The Beatles - Birthday (Tab)
Submitter: aussief (92) on 4/21/11 1 comment
Month Views: 9 | Total Views: 4,687
Moderator: EMRLDEYZS | Report This Song?
Song Tools

Comment

Songbook

Kudos

Show Chords

Print

Words and Music by John Lennon and Paul McCartney

   A7                    A7                    D7
E|-------0-3-2-0-|-----|-------0-3-2-0-|-----|---------------|-------|
B|-----2---------|-----|-----2---------|-----|---------1-0---|-------|
G|-2-2-----------|-2---|-2-2-----------|-2---|-------2-----2-|-------|
D|---------------|-----|---------------|-----|-0-0-4---------|-0-----|
A|---------------|-----|---------------|-----|---------------|-------|
E|---------------|-----|---------------|-----|---------------|-------|

   A7                    E7                    A7
E|-------0-3-2-0-|-----|---------------|-----|-------0-3-2-0-|-------|
B|-----2---------|-----|-------0-3-2-0-|-----|-----2---------|-------|
G|-2-2-----------|-2---|-----1---------|-----|-2-2-----------|-2-----|
D|---------------|-----|-2-2-----------|-2---|---------------|-------|
A|---------------|-----|---------------|-----|---------------|-------|
E|---------------|-----|---------------|-----|---------------|-------|
   
A7 
  You say itís your birthday
A7
Well itís my birthday too yeah
D7
They say itís your birthday
A7                       
Weíre gonna have a good time
E7
Iím glad itís your birthday
A7
Happy birthday to you

E     E  

E
Yes weíre going to a party party
E
Yes weíre going to a party party
E                                   
Yes weíre going to a party party

C    

         G                  C
I would like you to dance (birthday)
         G                  C
Take a cha-cha-cha-chance (birthday)
         G                  C
I would like you to dance (birthday)
G
Dance

   E     E     A7                     A7                     D7
E|-----|-----|-------0-3-2-0-|------|-------0-3-2-0-|------|---------------|-----|
B|-----|-----|-----2---------|------|-----2---------|------|---------1-0---|-----|
G|-1---|-1---|-2-2-----------|-2----|-2-2-----------|-2----|-------2-----2-|-----|
D|-----|-----|---------------|------|---------------|------|-0-0-4---------|-0---|
A|-----|-----|---------------|------|---------------|------|---------------|-----|
E|-----|-----|---------------|------|---------------|------|---------------------|

   A7                     E7                      A7
E|-------0-3-2-0-|------|---------------|-------|-------0-3-2-0-|--------|
B|-----2---------|------|-------0-3-2-0-|-------|-----2---------|--------|
G|-2-2-----------|-2----|-----1---------|-------|-2-2-----------|-2------|
D|---------------|------|-2-2-----------|-2-----|---------------|--------|
A|---------------|------|---------------|-------|---------------|--------|
E|---------------|------|---------------|-------|---------------|--------|

   A7
E|----0--3--5--3-|-0-----------|--------------8-|-0-----------|
B|---------------|---3-1-------|---5------------|---3-1-3-1---|
G|-2-------------|-------2-0---|----------------|-----------2-|
D|---------------|-------------|-5----5-5-5-----|-------------|
A|---------------|-------------|----------------|-------------|
E|---------------|-------------|----------------|-------------|

C         G                 C
I would like you to dance (birthday)
        G                   C
Take a cha-cha-cha-chance (birthday)
         G                  C
I would like you to dance (birthday)
G
Dance

A7
You say itís your birthday
A7
Well itís my birthday too yeah
D7
You say itís your birthday
A7
Weíre gonna have a good time
E7
Iím glad itís your birthday
A7
Happy birthday to you 

(REPEAT INTRO)

An F. K. Tab,,,, Enjoy!!!!!



  
 
  

 
 Comments (click here to add a non-facebook comment)
Excellent. Right on. KK.
-kraziekhat | 4/22/2011
Home | FAQs | Privacy | Terms | Contact
Top 100 Tab Sites