Give Kudos?
Are you sure you want to give kudos to pjvill?

Add To Songbook?
Are you sure you want to add this song to your songbook?


3,408 bands | 16,356 songs
Search: Register FREE! | Login
Browse Songs:
Browse Bands:
Tool Panel
Discuss This Song

1 2 3 4 5





The Beatles - Birthday (Tab)
Submitter: pjvill (3) on 11/26/05
Month Views: 13 | Total Views: 2,261
Moderator: EMRLDEYZS | Report This Song?
Song Tools

Comment

Songbook

Kudos

Show Chords

Print

-----------------------------------------------------------------


  THE BEATLES - BIRTHDAY (Lennon/McCartney) From the WHITE ALBUM.
                Released on 22nd November1968.


-----------------------------------------------------------------

  Tabbed by:PJVillanueva






You say it's your birthday
It's my birthday too--yeah
They say it's your birthday
We're gonna have a good time
I'm glad it's your birthday
Happy birthday to you.

Yes we're going to a party party
Yes we're going to a party party
Yes we're going to a party party.

I would like you to dance--Birthday
Take a cha-cha-cha-chance-Birthday
I would like you to dance--Birthday
Dance

You say it's your birthday
Well it's my birthday too--yeah
You say it's your birthday
We're gonna have a good time
I'm glad it's your birthday
Happy birthday to you.




                                                  x x   x   x x
  
e|------- ------- ------- -------|------- ------- ------- -------|
B|-------------------------------|-------------------------------|
G|-------------------------------|-------------------------------|
D|-------------------------------|-------------------------------|
A|-------------------------------|-------------------------------|
E|-------------------------------|-------------------------------|



  A
e|------- ------- ------- -------|------- ------- ------- -------|
B|-------------------------------|-------------------------------|
G|------------9---11B12-11----9--|-------------------------------|
D|7---7-9/11---------------------|7------------------------------|
A|-------------------------------|-------------------------------|
E|-------------------------------|-------------------------------|

e|------- ------- ------- -------|------- ------- ------- -------|
B|-------------------------------|-------------------------------|
G|----------------0---2-------2--|-------------------------------|
D|------------2------------------|-------------------------------|
A|0---0-/-4----------------------|0------------------------------|
E|-------------------------------|-------------------------------|





e|------- ------- ------- -------|------- ------- ------- -------|
B|-------------------------------|-------------------------------|
G|------------9---11B12-11----9--|-------------------------------|
D|7---7-9/11---------------------|7------------------------------|
A|-------------------------------|-------------------------------|
E|-------------------------------|-------------------------------|

e|------- ------- ------- -------|------- ------- ------- -------|
B|-------------------------------|-------------------------------|
G|----------------0---2-------2--|-------------------------------|
D|------------2------------------|-------------------------------|
A|0---0-/-4----------------------|0------------------------------|
E|-------------------------------|-------------------------------|



  D
e|------- ------- ------- -------|------- ------- ------- -------|
B|------------10--12B13-12----10-|-------------------------------|
G|7---7-9/11---------------------|-------------------------------|
D|-------------------------------|12-----------------------------|
A|-------------------------------|-------------------------------|
E|-------------------------------|-------------------------------|

e|------- ------- ------- -------|------- ------- ------- -------|
B|-------------------------------|-------------------------------|
G|------------2-/-5---7-------7--|-------------------------------|
D|0---0-/-4----------------------|0------------------------------|
A|-------------------------------|-------------------------------|
E|-------------------------------|-------------------------------|



  A
e|------- ------- ------- -------|------- ------- ------- -------|
B|-------------------------------|-------------------------------|
G|------------9---11B12-11----9--|-------------------------------|
D|7---7-9/11---------------------|7------------------------------|
A|-------------------------------|-------------------------------|
E|-------------------------------|-------------------------------|

e|------- ------- ------- -------|------- ------- ------- -------|
B|-------------------------------|-------------------------------|
G|----------------0---2-------2--|-------------------------------|
D|------------2------------------|-------------------------------|
A|0---0-/-4----------------------|0------------------------------|
E|-------------------------------|-------------------------------|



  E
e|------- ------- ------- -------|------- ------- ------- -------|
B|------------12--14B15-14----12-|-------------------------------|
G|9---911/13---------------------|-------------------------------|
D|-------------------------------|14-----------------------------|
A|-------------------------------|-------------------------------|
E|-------------------------------|-------------------------------|

e|------- ------- ------- -------|------- ------- ------- -------|
B|-------------------------------|-------------------------------|
G|-------------------------------|-------------------------------|
D|----------------0---2----------|-------------------------------|
A|------------2------------------|-------------------------------|
E|0---0---4----------------------|0------------------------------|



  A
e|------- ------- ------- -------|------- ------- ------- -------|
B|-------------------------------|-------------------------------|
G|------------9---11B12-11----9--|-------------------------------|
D|7---7-9/11---------------------|7------------------------------|
A|-------------------------------|-------------------------------|
E|-------------------------------|-------------------------------|

e|------- ------- ------- -------|------- ------- ------- -------|
B|-------------------------------|-------------------------------|
G|----------------0---2-------2--|-------------------------------|
D|------------2------------------|-------------------------------|
A|0---0-/-4----------------------|0------------------------------|
E|-------------------------------|-------------------------------|




e|------- ------- ------- -------|------- ------- ------- -------|
B|-------------------------------|-------------------------------|
G|------------9---11B12-11----9--|-------------------------------|
D|7---7-9/11---------------------|7------------------------------|
A|-------------------------------|-------------------------------|
E|-------------------------------|-------------------------------|
                              You say it's your birthday
e|------- ------- ------- -------|------- ------- ------- -------|
B|-------------------------------|-------------------------------|
G|----------------0---2-------2--|-------------------------------|
D|------------2------------------|-------------------------------|
A|0---0-/-4----------------------|0------------------------------|
E|-------------------------------|-------------------------------|




e|------- ------- ------- -------|------- ------- ------- -------|
B|-------------------------------|-------------------------------|
G|------------9---11B12-11----9--|-------------------------------|
D|7---7-9/11---------------------|7------------------------------|
A|-------------------------------|-------------------------------|
E|-------------------------------|-------------------------------|
                              It's my birthday too,   yeah
e|------- ------- ------- -------|------- ------- ------- -------|
B|-------------------------------|-------------------------------|
G|----------------0---2-------2--|-------------------------------|
D|------------2------------------|-------------------------------|
A|0---0-/-4----------------------|0------------
 Comments (click here to add a non-facebook comment)
Home | FAQs | Privacy | Terms | Contact
Top 100 Tab Sites