Give Kudos?
Are you sure you want to give kudos to pjvill?

Add To Songbook?
Are you sure you want to add this song to your songbook?


3,408 bands | 16,354 songs
Search: Register FREE! | Login
Browse Songs:
Browse Bands:
Tool Panel
Discuss This Song

1 2 3 4 5





The Beatles - Because (Tab)
Submitter: pjvill (3) on 11/26/05
Month Views: 6 | Total Views: 2,285
Moderator: EMRLDEYZS | Report This Song?
Song Tools

Comment

Songbook

Kudos

Show Chords

Print

-----------------------------------------------------------------


  THE BEATLES - BECAUSE (Lennon/McCartney) From ABBEY ROAD album.
                Released 26th September 1969.


-----------------------------------------------------------------

  Tabbed by:PJVillanueva





  
Because the world is round It turns me on
Because the world is round...aaaaaahhhhhh

Because the wind is high it blows my mind
Because the wind is high......aaaaaaaahhhh

Love is all, love is new
Love is all, love is you

Because the sky is blue, it makes me cry
Because the sky is blue.......aaaaaaaahhhh

Aaaaahhhhhhhhhh....



  C#m
e|------- ------- ------- -------|------- ------- ------- -------|
B|------------5------------------|------------5------------------|
G|--------6-------6--------------|--------6-------6--------------|
D|----6---------------6-------6--|----6---------------6-------6--|
A|4-----------------------7------|4-----------------------7------|
E|-------------------------------|-------------------------------|


  Eb-5/7                          G#
e|------- ------- ------- -------|------- ------- ------- -------|
B|------------4------------------|------------4------------------|
G|--------6-------6--------------|--------5-------5--------------|
D|----7---------------7-------4--|----6---------------6-------6--|
A|6-----------------------7------|6------------------------------|
E|-------------------------------|------------------------4------|


  A                               C#m
e|------- ------- ------- -------|------- ------- ------- -------|
B|------------5------------------|------------5------------------|
G|--------6-------6--------------|--------6-------6--------------|
D|----7---------------7-------7--|----6---------------6-------6--|
A|0-----------------------7------|4-----------------------4------|
E|-------------------------------|-------------------------------|


  A7                              A13
e|------- ------- ------- -------|------- ------- ------- -------|
B|------------8------------------|------------7------------------|
G|--------6-------6--------------|--------6----------------------|
D|----5---------------5-------5--|----5--------------------------|
A|0-----------------------7------|0------------------------------|
E|-------------------------------|-------------------------------|


  D                               D-5             Dm-5
e|------- ------- ------- -------|------- ------- ------- -------|
B|------------7------------------|------------7---6--------------|
G|--------7-------7--------------|--------7----------------------|
D|----7---------------7-------7--|----6--------------------------|
A|5-----------------------9------|5------------------------------|
E|-------------------------------|-------------------------------|
  Aaaaaaaaaaaaaaaaaaaaaaaaaaaaaaahhhhhhhhhhhhhhhhhhhh     Be.....

  C#m    
e|------- ------- ------- -------|------- ------- ------- -------|
B|------------5------------------|------------5------------------|
G|--------6-------6--------------|--------6-------6--------------|
D|----6---------------6-------6--|----6---------------6-------6--|
A|4-----------------------7------|4-----------------------7------|
E|-------------------------------|-------------------------------|
  cause       the world   is      round       it  turns   me

  Eb-5/7                          G#
e|------- ------- ------- -------|------- ------- ------- -------|
B|------------4------------------|------------4------------------|
G|--------6-------6--------------|--------5-------5--------------|
D|----7---------------7-------4--|----6---------------6-------6--|
A|6-----------------------7------|6-----------------------6------|
E|-------------------------------|-------------------------------|
  on                                                      Be.....

  A                               C#m
e|------- ------- ------- -------|------- ------- ------- -------|
B|------------5------------------|------------5------------------|
G|--------6-------6--------------|--------6-------6--------------|
D|----7---------------7-------7--|----6---------------6-------6--|
A|0-----------------------7------|4-----------------------4------|
E|-------------------------------|-------------------------------|
  cause                       the world                   is

  A7                              A13
e|------- ------- ------- -------|------- ------- ------- -------|
B|------------8------------------|------------7------------------|
G|--------6-------6--------------|--------6----------------------|
D|----5---------------5-------5--|----5--------------------------|
A|0-----------------------7------|0------------------------------|
E|-------------------------------|-------------------------------|
  round

  D                               D-5             Dm-5
e|------- ------- ------- -------|------- ------- ------- -------|
B|------------7------------------|------------7---6--------------|
G|--------7-------7--------------|--------7----------------------|
D|----7---------------7-------7--|----6--------------------------|
A|5-----------------------9------|5------------------------------|
E|-------------------------------|-------------------------------|
  Aaaaaaaaaaaaaaaaaaaaaaaaaahhhhhhhhhhhhhhhhhhhhhhh       Be.....

  C#m
e|------- ------- ------- -------|------- ------- ------- -------|
B|------------5------------------|------------5------------------|
G|--------6-------6--------------|--------6-------6--------------|
D|----6---------------6-------6--|----6---------------6-------6--|
A|4-----------------------7------|4-----------------------7------|
E|-------------------------------|-------------------------------|
  cause       the wind    is      high        it blows    my

  Eb-5/7                          G#
e|------- ------- ------- -------|------- ------- ------- -------|
B|------------4------------------|------------4------------------|
G|--------6-------6--------------|--------5-------5--------------|
D|----7---------------7-------4--|----6---------------6-------6--|
A|6-----------------------7------|6-----------------------6------|
E|-------------------------------|-------------------------------|
  mind                                                        Be..

  A                               C#m
e|------- ------- ------- -------|------- ------- ------- -------|
B|------------5------------------|------------5------------------|
G|--------6-------6--------------|--------6-------6--------------|
D|----7---------------7-------7--|----6---------------6-------6--|
A|7-----------------------7------|4-----------------------4------|
E|-------------------------------|-------------------------------|
  cause                       the wind                    is

  A7                              A13
e|------- ------- ------- -------|------- ------- ------- -------|
B|------------8------------------|------------7------------------|
G|--------6-------6--------------|--------6----------------------|
D|----5---------------5-------5--|----5--------------------------|
A|0-----------------------7------|0------------------------------|
E|-------------------------------|-------------------------------|
  high

  D                               D-5             Dm-5
e|------- ------- ------- -------|------- ------- ------- -------|
B|------------7------------------|------------7---6--------------|
G|--------7-------7--------------|--------7----------------------|
D|----7---------------7-------7--|----6--------------------------|
A|5-----------------------9------|5------------------------------|
E|-------------------------------|-------------------------------|
  Aaaaaaaaaaaaaaaaaaaaaaahhhhhhhhhhhhhhhh love is all     love is


  F#
e|------- ------- ------- -------|------- ----
 Comments (click here to add a non-facebook comment)
Home | FAQs | Privacy | Terms | Contact
Top 100 Tab Sites