Give Kudos?
Are you sure you want to give kudos to alblues?

Add To Songbook?
Are you sure you want to add this song to your songbook?


3,408 bands | 16,377 songs
Search: Register FREE! | Login
Browse Songs:
Browse Bands:
Tool Panel
Discuss This Song

1 2 3 4 5





The Beatles - Bad Boy (Tab)
Submitter: alblues (8) on 2/14/05
Month Views: 3 | Total Views: 3,501
Moderator: EMRLDEYZS | Report This Song?
Song Tools

Comment

Songbook

Kudos

Show Chords

Print

    THE BEATLES            BAD BOY

     TABBER ALBLUES OR AL FISHER

    LET RING
----8------------------------------------------| 
--8--------------------------------------------| 
--9---------------------8----8-10b-10-8--8-----| 
--10----10-10--10-10------10-----------10--10--| 
--10----10-10--10-10---------------------------| 
--8-----8--8---8--8----------------------------|

-----8--------------------| 
--8-----------------------|  
--9 ----------------------|  
--10-----10--10--10-10----| 
--10-----10--10--10-10----| 
--8------8---8---8--8-----|

-------------------------| 
-------------------------| 
-------------------------| 
-3--3-----3--5--3--3 -3--| 
-1--1-----1--1--1--1--1--| 
-------3-----------------|
 C-RHY -O 
--------------------| 
--------------------| 
--------------------| ETC ETC ETC
--------------------| 
--10--10--10--12----| 
--8---8---8---8-----|  
 THE BAD LITTLE BOY MOVED IN TO THE NEIGHBOR HOOD

 RIFF-1 
---------------8------------|
----------------------------| 
---8--10--10b-----10b-8-----| 
-10---------------------10--| 
----------------------------|
----------------------------|

RHY -O
HE WONT DO NOTHING RIGHT SITTING DOWN AND LOOKING  
SO GOOD
RIFF-1

 F RHY -T
----------------| 
----------------| 
----------------| 
-10-10-10-12 ---| ETC ETC ETC 
-8--8--8--8-----| 
----------------| 
HE DONT WANT TO GO TO SCHOOL TO READ AND WRITE
  ~~~~~~~~~~~~~~~~~~~~~~~~~~~~
---------------------------------11--|
-13B--13B-13B-13B-13B-13B--13B-13----| 
-------------------------------------|
-------------------------------------| 
-------------------------------------|
-------------------------------------|

RHY - C,               OR THIS
-------------------- -----------------------|
--------------------- ----------------------|
---------------------- ---------------------|
----------------------- --------5-5--7--5---|
----------10--12-10----- --3--6-------------|  
--8-8--11---------------- ------------------|
JUST SITS AROUND THE HOUSE AND PLAYS
ROCK N ROLL MUSIC AL NIGHT

-------------------------8----|
-13B--------------------------|
-----10B--------10----10------| 
---------13--10----10---------| 
------------------------------|
------------------------------|

RHY L
-------------------------| 
-------------------------|  
-------------------------| 
---5-----5-----5---------| 
---5-----5-----5---------| 
-3-----3-----3-----------| 
WELL HE PUT SOME TACKS ON THE TEACHERS CHAIR

F RHY                                 C5
-----------------------------------------|
-----------------------------------------|
---------------------------------------5-|
----3------3-------3-------------------5-|
----3------3-------3-------------------3-|
-1------1--------1-----------------------|

PUT CHEWING GUM IN A LITTLE GIRLS HAIR
NOW JUNIOR BEHAVE YOUR SELF

G RHY 
-5------------| 
-5------------| 
-4 -4---------| 
-5--5--5--5---| 
-5--5--5--5---| 
-3--3--3--3---| 

RHY- C BUYS EVERY ROCK N ROLL BOOK ON THE MAGAZINE STAND 

RIFF-1

RHY- C
EVERY DIME THAT HE GETS IS LOST TO THE JUKE BOX


-------------8B--------------------------------|
--13B-----------10B--8B------------------------|
------12----------------10B--8----8---10B--8---|
-------------------------------10--10----------| 
-----------------------------------------------|
-----------------------------------------------|
RHY F----Z
---------------------------|  
---------------------------|  
------------8-8------------|ETC ETC ETC 
--------10-------10--------| 
--8--11-------------11-----| 
---------------------------| 
WELL HE WORRIES HIS TEACHER TILL AT NIGHT
SHES READY TO POOP

                    ~~~~~~~ ~~~   
------11------11--13B-13-13--11--| 
---13----13----------------------| 
---------------------------------|
---------------------------------|
---------------------------------|
---------------------------------|

RHY- C
FROM ROCKING AND A  ROLLING SPINNIN IN A HULA HOOP

FILL
-6-----------|
-5---6B---4--| 
---5----5----|
-------------|
-------------|
RHY-L
WELL THIS ROCK NROLL HAS GOT TO STOP

F-RHY                          C
JUNIORS HEAD IS HARD AS A ROCK
                               G RHY 
NOW  JUNIOR BE HAVE YOUR SELF        OW!

SOLO
----------------------------------------------|
-----------------------------------1----------|
----------------------------3-3--3------------|
--1---1--3B-3B-3B--1---1----2-2--2----3B-1----| 
-3--3----------------3---------------------3--| 
----------------------------------------------|

-------------------------------------------| 
------4B-4B-4B-4B--4B-4B--4B-----4-4-4-4---|  
-3-5---------------------------------------| 
-------------------------------------------|  
-------------------------------------------|  
-------------------------------------------|
                        SLIDE
-8-----------------------------------------|
-------------------------------------------|
----10B--8---------------------------------|
-----------10-------8----------------------| 
-----------------10-----10/-10/-10/-10/----| 
-------------------------------------------|

----------------------------------------------|
----------------------------------------------|
----------------3-----------------------------|
-------------------5B-3-----------------------| 
-8/-8/-8/--8/------------3-3-3-3-3-3--5-5-5-5-|   
--------------------------------------3-3-3-3-|
 
RHY-C-2            0R THIS
-------------------|--------------------|  
-------------------|--------------------| 
---------------3---|--------------------| 
--------5--5---2---|-------5--8-8--5----| 
-3-3-6---------3---|-3-3-6-----------6--| 
-------------------|--------------------| 
 GOING TO TELL YOUR MAMA YOU
BETTER DO WHAT SHE SAYS      RIFF1

RHY-C-2
WHENT TO THE BARBERSHOP GET THAT HAIR 
CUT OF YOUR HEAD 
 
        PLAY THIS FILL
---------------------------------|
--------6B-6B-6B-6B-6B-6B-4------| 
----------------------------5----|
---------------------------------|
---------------------------------|
---------------------------------|  
 F BASS LINE
---------------------------| 
---------------------------|
---------------------------| 
---------10--13-13--10-----| 
---8--11-------------------| 
---------------------------| 
THREW THE CANARY AND FED IT TO THE NEIGHBORS CAT

--13B--11B------------------| 
-----------13--10-----------| 
---------------14---10B~~~--| 
----------------------------|
----------------------------|
----------------------------|
 
RHY-C-2
YOU GAVE THE COCKER SPANIEL A BATH
IN MOTHERS LAUNDRAMAT

------------13B-13B13B-13B--11----|
-13B-----13-----------------------|
-----14B--------------------------|
----------------------------------|
----------------------------------|  
----------------------------------| 
G
WELL MAMAS HEAD THIS GOT TO STOP

F                             C
JUNIORS HEAD IS HARD AS A ROCK
NOW JUNIOR BEHAVE YOUR SELF  WO   C-MAJOR 8FRET
 







 
  
 Comments (click here to add a non-facebook comment)
Home | FAQs | Privacy | Terms | Contact
Top 100 Tab Sites