Give Kudos?
Are you sure you want to give kudos to pjvill?

Add To Songbook?
Are you sure you want to add this song to your songbook?


3,408 bands | 16,354 songs
Search: Register FREE! | Login
Browse Songs:
Browse Bands:
Tool Panel
Discuss This Song

1 2 3 4 5





The Beatles - Back In The Ussr (Tab)
Submitter: pjvill (3) on 11/26/05
Month Views: 5 | Total Views: 2,323
Moderator: EMRLDEYZS | Report This Song?
Song Tools

Comment

Songbook

Kudos

Show Chords

Print

------------------------------------------------------------------
  
THE BEATLES - BACK IN THE USSR (Lennon/McCartney) From the WHITE 
              ALBUM. Released on 22nd November 1968.


------------------------------------------------------------------

  Tabbed by:PJVillanueva





Flew in from Miami Beach BOAC
Didn't get to bed last night
On the way the paper bag was on my knee
Man I had a dreadful flight
I'm back in the U.S.S.R.
You don't know how lucky you are boy
Back in the U.S.S.R.

Been away so long I hardly knew the place
Gee it's good to be back home
Leave it till tomorrow to unpack my case
Honey disconnect the phone
I'm back in the U.S.S.R.
You don't know how lucky you are boy
Back in the U.S.S.R.

Well the Ukraine girls really knock me out
They leave the West behind
And Moscow girls make me sing and shout
That Georgia's always on my mind.

I'm back in the U.S.S.R.
You don't know how lucky you are boys
Back in the U.S.S.R.

Show me round your snow peaked mountains way down south
Take me to your daddy's farm
Let me hear your balalaika's ringing out
Come and keep your comrade warm.
I'm back in the U.S.S.R.
You don't know how lucky you are boys
Back in the U.S.S.R.








                                     
  x   x   x   x   x   x   x   x   x   x   x   x   x   x   x   x
                          E                               E7
e|------- ------- ------- 0------|------- ------- ------- 0------|
B|-------------------------------|------------------------3------|
G|-------------------------------|------------------------1------|
D|-------------------------------|------------------------0------|
A|-------------------------------|------------------------2------|
E|-------------------------------|-------------------------------|

e|------- ------- ------- -------|------- ------- ------- -------|
B|3---3---3---3---3---3---3---3--|3---3---3---3---3---3---3---3--|
G|1---1---1---1---1---1---1---1--|1---1---1---1---1---1---1---1--|
D|0---0---0---0---0---0---0---0--|0---0---0---0---0---0---0---0--|
A|2---2---2---2---2---2---2---2--|2---2---2---2---2---2---2---2--|
E|0---0---0---0---0---0---0---0--|0---0---0---0---0---0---0---0--|


  A5                              D5
e|------- ------- ------- -------|------- ------- ------- -------|
B|-------------------------------|-------------------------------|
G|-------------------------------|7---7---7---7---7---7---7---7--|
D|7---7---7---7---7---7---7---7--|7---7---7---7---7---7---7---7--|
A|7---7---9---7---7---7---9---7--|5---5---5---5---5---5---5---5--|
E|5---5---5---5---5---5---5---5--|-------------------------------|
  Flew in from Miami      Beach  BOAC                        Didn't 

  C5                              D5
e|------- ------- ------- -------|------- ------- ------- -------|
B|-------------------------------|-------------------------------|
G|5---5---5---5---5---5---5---5--|7---7---7---7---7---7---7---7--|
D|5---5---5---5---5---5---5---5--|7---7---7---7---7---7---7---7--|
A|3---3---3---3---3---3---3---3--|5---5---5---5---5---5---5---5--|
E|-------------------------------|-------------------------------|
          get to  bed last  night

  A5                              D5
e|------- ------- ------- -------|------- ------- ------- -------|
B|-------------------------------|-------------------------------|
G|-------------------------------|7---7---7---7---7---7---7---7--|
D|7---7---7---7---7---7---7---7--|7---7---7---7---7---7---7---7--|
A|7---7---7---7---7---7---7---7--|5---5---5---5---5---5---5---5--|
E|5---5---5---5---5---5---5---5--|-------------------------------|
  On the  way the paper   bag was on my knee                   Man 
e|------- ------- ------- -------|------- ------- ------- -------|
B|-------------------------------|-------------------------------|
G|-------------------------------|-------------------------------|
D|7-----------7-----------7------|12----------12----------12-----|
A|7-----------7-----------7------|12----------12----------12-----|
E|5-----------5-----------5------|10----------10----------10-----|


  C5                              D5
e|------- ------- ------- -------|------- ------- ------- -------|
B|-------------------------------|-------------------------------|
G|5---5---5---5---5---5---5---5--|7---7---7---7---7---7---7---7--|
D|5---5---5---5---5---5---5---5--|7---7---7---7---7---7---7---7--|
A|3---3---3---3---3---3---3---3--|5---5---5---5---5---5---5---5--|
E|-------------------------------|-------------------------------|
     I    had a   dreadful   flight  I'm  back in the U.S.S.R.
e|------- ------- ------- -------|------- ------- ------- -------|
B|-------------------------------|-------------------------------|
G|-------------------------------|-------------------------------|
D|10----------10----------10-----|12----------12----------12-----|
A|10----------10----------10-----|12----------12----------12-----|
E|-8-----------8-----------8-----|10----------10----------10-----|


  A                               C
e|------- ------- ------- -------|------- ------- ------- -------|
B|-------------------------------|-------------------------------|
G|-------------------------------|-------------------------------|
D|7---7---7---7---7---7---7---7--|10---10-10---10-10---10-10---10|
A|7---7---7---7---7---7---7---7--|10---10-10---10-10---10-10---10|
E|5---5---5---5---5---5---5---5--|-8----8--8----8--8----8--8----8|
                                    
e|------- ------- ------- -------|------- ------- ------- -------|
B|-------------------------------|-------------------------------|
G|----2-------0------------------|---5--------3------------------|
D|----2-------2-------4----------|---5--------5-------7----------|
A|0-----------------------3H4P3H4|3-----------------------6--H--7|
E|-------------------------------|-------------------------------|
                                   You don't know how lucky you are 

  D
e|------- ------- ------- -------|------- ------- ------- -------|
B|-------------------------------|-------------------------------|
G|-------------------------------|-------------------------------|
D|12---12-12---12-12---12-12---12|12-----------------------------|
A|12---12-12---12-12---12-12---12|12-----------------------------|
E|10---10-10---10-10---10-10---10|10-\---------------------------|

e|------- ------- ------- -------|------- ------- ------- -------|
B|-------------------------------|-------------------------------|
G|----7-------5------------------|-------------------------------|
D|----7-------7-------9----------|-------------------------------|
A|5-----------------------8--H--9|5------------------------------|
E|-------------------------------|-------------------------------|
              boy                    Back    in the USSR



  A                                           E7
e|------- ------- ------- -------|------- ------- ------- -------|
B|-------------------------------|------------5-------5---5------|
G|-------------------------------|------------7-------7---7------|
D|7---7---7---7---7---7---7---7--|7---7--7----6-------6---6------|
A|7---7---7---7---7---7---7---7--|7---7--7----7-------7---7------|
E|5---5---5---5---5---5---5---5--|5---5--5-----------------------|
                                     D    D# E
e|------- ------- ------- -------|---10-- 11-12-- ------- -------|
B|-------------------------------|---10---11-12------------------|
G|-------------------------------|---11---12-13------------------|
D|-------------------------------|-------------------------------|
A|-------------------------------|-------------------------------|
E|-------------------------------|-------------------------------|




  A5      A6  A5          A6  A5  D5
e|------- ------- ------- -------|------- ------- ------- -------|
B|---------------------
 Comments (click here to add a non-facebook comment)
Home | FAQs | Privacy | Terms | Contact
Top 100 Tab Sites