Give Kudos?
Are you sure you want to give kudos to pjvill?

Add To Songbook?
Are you sure you want to add this song to your songbook?


3,408 bands | 16,354 songs
Search: Register FREE! | Login
Browse Songs:
Browse Bands:
Tool Panel
Discuss This Song

1 2 3 4 5





The Beatles - Baby's In Black (Tab)
Submitter: pjvill (3) on 11/26/05
Month Views: 5 | Total Views: 2,238
Moderator: EMRLDEYZS | Report This Song?
Song Tools

Comment

Songbook

Kudos

Show Chords

Print

-------------------------------------------------------------------------------


  The Beatles - Baby's in black from Beatles for Sale album (Released on 
                December the 4th of 1964.)


-------------------------------------------------------------------------------

  Tabbed by:PJVillanueva


       


    (12/8 Time)
                              
 1                                         2 
e|------ ------ ------|------ ------ ------|------ ------ ------|
B|2-------------------|--------------------|--------------------|
G|-----------------4B6R4-------2-----------|--------------------|
D|--------------------|--------------4-----|--------------------|
A|--------------------|--------------------|0-------------------|
E|--------------------|--------------------|--------------------|...




       (Chorus)

A       E
Oh Dear what can I do

D                     E
Baby' s in black And I'm feeling blue

        A   D         A
Tell me oh What can I do


       (Verse 1)

 A
She thinks of him

    A7                D
And so she dresses in black

                            A
And though he'll never come back

 E                 A
She' s dressed in black


        (Chorus)


        (Verse 2)

A          
I think of her

     A7                 D
But she thinks only of him

                        A
And though it' s only a whim

E             A
She thinks of him


        (Middle)

F#m    B7
Oh how long will it take

D        E                        A
Till she sees the mistake she has made

      E
Dear, what can I do

D                    E
Baby' s in black and I'm feeling blue

        A  D          A
Tell me oh what can I do


        (Repeat Verse 1 & Chorus)






      Solo
 1                                         2
e|------ ------ ------|------ ------ ------|------ ------ ------|
B|2-------------------|--------------------|--------------------|
G|-----------------4B6R4-------2-----------|------------------4B|
D|--------------------|-----------------4--|--------------------|
A|--------------------|--------------------|0-------------------|
E|--------------------|--------------------|--------------------|


                      3
e|------ ------ ------|------ 2----- ------|0----- ------ ------|
B|--------------------|--------------------0--------------------|
G|6-R-4--2---------0-H-1------------------1|--------------------|
D|--------------------|--------------------|------------------3/|
A|--------------------|--------------------|--------------------|
E|--------------------|--------------------|--------------------|


 4                                         5
e|------ ------ ------|------ ------ ------|------ 9------ ------|
B|-------3---------3-/|1-------------------|---------------------|
G|--------------------|------------------7/|8-B-9--------------7-|
D|4----------------4-/|2-------------------|---------------------|
A|--------------------|--------------------|---------------------|
E|--------------------|--------------------|---------------------|


                      6
e|7----- ------ ------|------ ------ ------|------ ------ ------|
B|--------------------|--------------------|--------------------|
G|--------------------|4--B--6--------------6-R-4---2-----------|
D|--------------------|--------------------|--------------4-----|
A|--------------------|--------------------|--------------------|
E|--------------------|--------------------|--------------------|


 7
e|------ ------ ------|
B|--------------------|
G|--------------------|
D|--------------------|
A|0-------------------|
E|--------------------|








   
| B  bend
| R  release
| /  slide up
| \  slide down
| H  hammer-on
| P  pull-off
| ~  vibrato
| +  harmonic
| x  Mute note
===============================================================================
 Comments (click here to add a non-facebook comment)
Home | FAQs | Privacy | Terms | Contact
Top 100 Tab Sites