Give Kudos?
Are you sure you want to give kudos to pjvill?

Add To Songbook?
Are you sure you want to add this song to your songbook?


3,408 bands | 16,356 songs
Search: Register FREE! | Login
Browse Songs:
Browse Bands:
Tool Panel
Discuss This Song

1 2 3 4 5





The Beatles - Ask Me Why (Chord)
Submitter: pjvill (3) on 11/26/05
Month Views: 7 | Total Views: 1,983
Moderator: EMRLDEYZS | Report This Song?
Song Tools

Comment

Songbook

Kudos

Show Chords

Print

--------------------------------------------------------------------



  THE BEATLES - ASK ME WHY (McCartney/Lennon) From PLEASE, PLEASE ME
                album. Released on 22nd March 1963.


--------------------------------------------------------------------

  Tabbed by:PJVillanueva





I love you, 'cause you tell me things I want to know.
And it's true that it really only goes to show,
That I know,
That I, I, I, I should never, never, never be blue.

Now you're mine, my happiness still makes me cry.
And in time, you'll understand the reason why,
If I cry,
It's not because I'm sad, but you're the only love that I've ever had.

I can't believe it's happened to me
I can't conceive of any more misery.

Ask me why, I'll say I love you,
And I'm always thinking of you.

I love you, 'cause you tell me things I want to know.
And it's true that it really only goes to show,
That I know,
That I, I, I, I should never, never, never be blue.

Ask me why, I'll say I love you,
And I'm always thinking of you.

I can't believe it's happened to me.
I can't conceive of any more misery.

Ask me why, I'll say I love you,
And I'm always thinking of you.



                                     
  E
e|0------ ----0-- ------- 0------|0------ ------- ------- -------|
B|0-----------0-----------0------|0------------------------------|
G|1-----------1-----------1------|1------------------------------|
D|2-----------2-----------2------|2------------------------------|
A|2-----------2-----------2------|2------------------------------|
E|0-----------0-----------0------|0------------------------------|
                                                  I       love
e|------- ------- ------- -------|------- ------- ------- -------|
B|-----------12------------------|-------------------------------|
G|9------------------------------|9---------------4-------6------|
D|------------9-----------9------|----------------6-------7------|
A|7------------------------------|7------------------------------|
E|------------------------7------|-------------------------------|



  G#m                             F#m
e|4------ 4---4-- ----4-- 4------|2------ 2---2-- ------- 2------|
B|4-------4---4-------4---4------|2-------2---2-----------2------|
G|4-------4---4-------4---4------|2-------2---2-----------2------|
D|6-------6---6-------6---6------|4-------4---4-----------4------|
A|6-------6---6-------6---6------|4-------4---4-----------4------|
E|4-------4---4-------4---4------|2-------2---2-----------2------|
  you                                   'cause you tell me things I
e|4------ ------- ------- -------|2------ ------- ------- -------|
B|4------------------------------|2------------------------------|
G|4------------------------------|2------------------------------|
D|6------------------------------|4------------------------------|
A|6------------------------------|4------------------------------|
E|4------------------------------|2------------------------------|



  E
e|0------ ----0-- ------- 0------|0------ ------- ------- -------|
B|0-----------0-----------0------|0------------------------------|
G|1-----------1-----------1------|1------------------------------|
D|2-----------2-----------2------|2------------------------------|
A|2-----------2-----------2------|2------------------------------|
E|0-----------0-----------0------|0------------------------------|
  want    to know                                 And     it's
e|------- ------- ------- -------|------- ------- ------- -------|
B|-----------12------------------|-------------------------------|
G|9------------------------------|9---------------4-------6------|
D|------------9-----------9------|----------------6-------7------|
A|7------------------------------|7------------------------------|
E|------------------------7------|-------------------------------|



  G#m                             F#m
e|4------ 4---4-- ----4-- 4------|2-----2 2---2-- ----2-- 2------|
B|4-------4---4-------4---4------|2-----2-2---2-------2---2------|
G|4-------4---4-------4---4------|2-----2-2---2-------2---2------|
D|6-------6---6-------6---6------|4-----4-4---4-------4---4------|
A|6-------6---6-------6---6------|4-----4-4---4-------4---4------|
E|4-------4---4-------4---4------|2-----2-2---2-------2---2------|
  true                                    that it really  only
e|4------ ------- ------- -------|2------ ------- ------- -------|
B|4------------------------------|2------------------------------|
G|4------------------------------|2------------------------------|
D|6------------------------------|4------------------------------|
A|6------------------------------|4------------------------------|
E|4------------------------------|2------------------------------|



  E                               G#
e|0------ ----0-- ------- 0---0--|4------ ----4-- ------- 4------|
B|0-----------0-----------0---0--|4-----------4-----------4------|
G|1-----------1-----------1---1--|5-----------5-----------5------|
D|2-----------2-----------2---2--|6-----------6-----------6------|
A|2-----------2-----------2---2--|6-----------6-----------6------|
E|0-----------0-----------0---0--|4-----------4-----------4------|
  goes    to  show                that I know                 that
e|------- ------- ------- -------|------- ------- ------- -------|
B|-------------------------------|--------7---7------------------|
G|-------------------------------|-------5-----------------------|
D|--------2---------------2------|------6------------------------|
A|-------2-----------------------|-----6------------------6------|
E|------0------------------------|-------------------------------|



  C
e|4------ 4---4-- ------- 4------|4---4-4 4---4-- ----4-- 4------|
B|5-------5---5-----------5------|5---5-5-5---5-------5---5------|
G|6-------6---6-----------6------|6---6-6-6---6-------6---6------|
D|6-------6---6-----------6------|6---6-6-6---6-------6---6------|
A|4-------4---4-----------4------|4---4-4-4---4-------4---4------|
E|-------------------------------|-------------------------------|
  I               I   I       I                           should


  Am                              F#
e|5------ 5---5-- 5---5-- 5------|2------ ----2-- 2---2-- 2------|
B|5-------5---5---5---5---5------|2-----------2---2---2---2------|
G|5-------5---5---5---5---5------|3-----------3---3---3---3------|
D|7-------7---7---7---7---7------|4-----------4---4---4---4------|
A|7-------7---7---7---7---7------|4-----------4---4---4---4------|
E|5-------5---5---5---5---5------|2-----------2---2---2---2------|
  never   never   never   be      blue.


  B
e|2------ ------- ------- -------|
B|4------------------------------|
G|4------------------------------|
D|4------------------------------|
A|2------------------------------|
E|-------------------------------|
                  Now     you're
e|------- ------- ------- -------|
B|-------------------------------|
G|----------------4-------6------|
D|----------------6-------7------|
A|-------------------------------|
E|-------------------------------|



  G#m                             F#m
e|4------ ----4-- 4------ 4------|2---2-2 2---2-- 2---2-- 2------|
B|4-----------4---4-------4------|2---2-2-2---2---2---2---2------|
G|4-----------4---4-------4------|2---2-2-2---2---2---2---2------|
D|6-----------6---6-------6------|4---4-4-4---4---4---4---4------|
A|6-----------6---6-------6------|4---4-4-4---4---4---4---4------|
E|4-----------4---4-------4------|2---2-2-2---2---2---2---2------|
  mine                                        my  happiness   still
e|4------ ------- ------- -------|2------ ------- ------- -------|
B|4------------------------------|2------------------------------|
G|4------------------------------|2------------------------------|
D|6------------- 
 Comments (click here to add a non-facebook comment)
Home | FAQs | Privacy | Terms | Contact
Top 100 Tab Sites