Give Kudos?
Are you sure you want to give kudos to pjvill?

Add To Songbook?
Are you sure you want to add this song to your songbook?


3,408 bands | 16,356 songs
Search: Register FREE! | Login
Browse Songs:
Browse Bands:
Tool Panel
Discuss This Song

1 2 3 4 5





The Beatles - Anytime At All (Tab)
Submitter: pjvill (3) on 11/26/05
Month Views: 7 | Total Views: 2,268
Moderator: EMRLDEYZS | Report This Song?
Song Tools

Comment

Songbook

Kudos

Show Chords

Print

-------------------------------------------------------------------------


  THE BEATLES - ANYTIME AT ALL (Lennon/McCartney) From A HARD DAY'S NIGHT
                album. Released March 20th 1964.


-------------------------------------------------------------------------

  Tabbed by:PJVillanueva






Any time at all, any time at all, any time at all , all
you've gotta do is call and I'll be there.

If you need somebody to love, just look into my eyes, I'll
be there to make you feel right.
If you're feeling sorry and sad, I'd really sympathize.
Don't you be sad, just call me tonight.

Any time at all, any time at all, any time at all , all
you've gotta do is call and I'll be there.

If the sun has faded away, I'll try to make it shine,
there's nothing I won't do
If you need a shoulder to cry on I hope it will be mine.
Call me tonight, and I'll come to you.

Any time at all, any time at all, any time at all , all
you've gotta do is call and I'll be there.
Any time at all, all you've gotta do is call and I'll be there.





                                          X
                                      
e|------- ------- ------- -------|------- ------- ------- -------|
B|-------------------------------|-------------------------------|
G|-------------------------------|-------------------------------|
D|-------------------------------|-------------------------------|
A|-------------------------------|-------------------------------|
E|-------------------------------|-------------------------------|
                                                  Anytime     at

  Bm                          D   
e|2------ 2------ 2---2-- 2---2--|------- 2------ 2------ 2------|
B|3-------3-------3---3---3---3--|--------3-------3-------3------|
G|4-------4-------4---4---4---2--|--------2-------2-------2------|
D|4-------4-------4---4---4---0--|--------0-------0-------0------|
A|2-------2-------2---2---2------|-------------------------------|
E|-------------------------------|-------------------------------|
  all                                             Anytime     at
e|------- ------- ------- -------|------- ------- ------- -------|
B|--------------------3----------|-------------------------------|
G|------------2---4--------------|-------------------------------|
D|-------------------------------|-------------------------------|


  A
e|0------ 0---0-- 0---0-- 0---0--|0---0-- 0------ 0---0-- 0---0--|
B|2-------2---2---2---2---2---2--|2---2---2-------2---2---2---2--|
G|2-------2---2---2---2---2---2--|2---2---2-------2---2---2---2--|
D|2-------2---2---2---2---2---2--|2---2---2-------2---2---2---2--|
A|0-------0---0---0---0---0---0--|0---0---0-------0---0---0---0--|
E|-------------------------------|-------------------------------|
  all                                             Anytime     at
e|------- 0------ ------- ----0--|------- ------- ------- -------|
B|----------------3---2----------|-------------------------------|
G|-------------------------------|-------------------------------|
D|-------------------------------|-------------------------------|


  Bm                              G               A
e|2------ 2---2-- 2---2-- 2------|3---3-- 3------ 0------ 0------|
B|3-------3---3---3---3---3------|3---3---3-------2-------2------|
G|4-------4---4---4---4---4------|0---0---0-------2-------2------|
D|4-------4---4---4---4---4------|0---0---0-------2-------2------|
A|2-------2---2---2---2---2------|2---2---2-------0-------0------|
E|-------------------------------|3---3---3----------------------|
  all       all you've gotta do is call       and I'll        be

  D
e|2------ 2---2-- 2---2-- 2---2--|2------ 2------ 2---2-- 2---2--|
B|3-------3---3---3---3---3---3--|3-------3-------3---3---3---3--|
G|2-------2---2---2---2---2---2--|2-------2-------2---2---2---2--|
D|0-------0---0---0---0---0---0--|0-------0-------0---0---0---0--|
A|-------------------------------|-------------------------------|
E|-------------------------------|-------------------------------|
  there
e|3------ 2------ 0------ ----2--|------- ------- ------- -------|
B|--------------------3----------|-------------------------------|
G|-------------------------------|-------------------------------|
D|-------------------------------|-------------------------------|






e|2------ 2---2-- 2---2-- 2---2--|2------ 2------ 2---2-- 2---2--|
B|3-------3---3---3---3---3---3--|3-------3-------3---3---3---3--|
G|2-------2---2---2---2---2---2--|2-------2-------2---2---2---2--|
D|0-------0---0---0---0---0---0--|0-------0-------0---0---0---0--|
A|-------------------------------|-------------------------------|
E|-------------------------------|-------------------------------|
          If you  need    some....body    to love,
e|2------ ------- ------- -------|2------ ------- ----2-- -------|
B|3------------------------------|3-------------------3----------|
G|2------------------------------|2-------------------2----------|
D|0------------------------------|-------------------------------|
A|-------------------------------|4-------------------4----------|
E|-------------------------------|-------------------------------|


  Bm                              Gm
e|2------ 2------ 2---2-- 2---2--|3------ 3---3-- 3---3-- 3---3--|
B|3-------3-------3---3---3---3--|3-------3---3---3---3---3---3--|
G|4-------4-------4---4---4---4--|3-------3---3---3---3---3---3--|
D|4-------4-------4---4---4---4--|5-------5---5---5---5---5---5--|
A|2-------2-------2---2---2---2--|5-------5---5---5---5---5---5--|
E|-------------------------------|3-------3---3---3---3---3---3--|
     just look into  my       eyes,
e|2------ ------- ------- -------|3------ ------- ------- -------|
B|3------------------------------|3------------------------------|
G|4------------------------------|3------------------------------|
D|4------------------------------|5------------------------------|
A|2------------------------------|5------------------------------|
E|-------------------------------|3------------------------------|


  D                               A
e|2------ 2---2-- 2---2-- 2---2--|0------ 0---0-- 0---0-- 0------|
B|3-------3---3---3---3---3---3--|2-------2---2---2---2---2------|
G|2-------2---2---2---2---2---2--|2-------2---2---2---2---2------|
D|0-------0---0---0---0---0---0--|2-------2---2---2---2---2------|
A|-------------------------------|0-------0---0---0---0---0------|
E|-------------------------------|-------------------------------|
  I'll    be there           to   make    you         feel    right.
e|2------ ------- ------- -------|0------ ------- ------- -------|
B|3------------------------------|2------------------------------|
G|2------------------------------|2------------------------------|
D|0------------------------------|2------------------------------|
A|-------------------------------|0------------------------------|
E|-------------------------------|-------------------------------|



  D
e|2------ 2------ 2---2-- 2------|2------ 2---2-- 2---2-- 2------|
B|3-------3-------3---3---3------|3-------3---3---3---3---3------|
G|2-------2-------2---2---2------|2-------2---2---2---2---2------|
D|0-------0-------0---0---0------|0-------0---0---0---0---0------|
A|-------------------------------|-------------------------------|
E|-------------------------------|-------------------------------|
          If you're fee...ling    sorry   and sad
e|2------ ------- ------- -------|2------ ------- ------- -------|
B|3-------3----------------------|3------------------------------|
G|2------------------------------|2------------------------------|
D|0------------------------------|-------------------------------|
A|-------------------------------|4------------------------------|
E|-------------------------------|-------------------------------|


  Bm   
 Comments (click here to add a non-facebook comment)
Home | FAQs | Privacy | Terms | Contact
Top 100 Tab Sites