Give Kudos?
Are you sure you want to give kudos to pjvill?

Add To Songbook?
Are you sure you want to add this song to your songbook?


3,408 bands | 16,356 songs
Search: Register FREE! | Login
Browse Songs:
Browse Bands:
Tool Panel
Discuss This Song

1 2 3 4 5





The Beatles - And Your Bird Can Sing (Tab)
Submitter: pjvill (3) on 11/26/05
Month Views: 8 | Total Views: 2,237
Moderator: EMRLDEYZS | Report This Song?
Song Tools

Comment

Songbook

Kudos

Show Chords

Print

-----------------------------------------------------------------------

  THE BEATLES - AND YOUR BIRD CAN SING (Lennon/McCartney) From REVOLVER
                album. Released on 5th August 1966.

-----------------------------------------------------------------------

  Tabbed by:PJVillanueva







Tell me that you've got everything you want
And your bird can sing
But you don't get me, you don't get me

You say you've seen seven wonders and your bird is green
But you can't see me, you can't see me

When your prized possessions start to wear you down
Look in my direction, I'll be round, I'll be round

When your bird is broken will it bring you down
You may be awoken, I'll be round, I'll be round

You tell me that you've heard every sound there is
And your bird can swing
But you can't hear me, you can't hear me






          Use a capo on the 2nd fret for all three guitars



    Intro   
                                   
  D
e|2------ 2------ 2------ 2------|2------ 2------ 2------ 2------|
B|3-------3-------3-------3------|3-------3-------3-------3------|
G|2-------2-------2-------2------|2-------2-------2-------2------|
D|0-------0-------0-------0------|0-------0-------0-------0------|
A|-------------------------------|-------------------------------|
E|-------------------------------|-------------------------------|

e|------- ------- ------- -------|------- ------- ------- -------|
B|----7---5-------5--------------|-------------------------------|
G|------------7-------7---6---7--|6---4-------------------7---9--|
D|-------------------------------|--------7---5---4---7----------|
A|-------------------------------|-------------------------------|
E|-------------------------------|-------------------------------|

e|------- ------- ------- -------|------- ------- ------- -------|
B|-------------------------------|-------------------------------|
G|----7---6---4---6---4-------4--|-------------------------------|
D|------------------------7------|7---5---4---------------4---7--|
A|-------------------------------|------------7---5---7----------|
E|-------------------------------|-------------------------------|  





e|2------ 2------ 2------ 2------|2------ 2------ 2------ 2------|
B|3-------3-------3-------3------|3-------3-------3-------3------|
G|2-------2-------2-------2------|2-------2-------2-------2------|
D|0-------0-------0-------0------|0-------0-------0-------0------|
A|-------------------------------|-------------------------------|
E|-------------------------------|-------------------------------|
                                                              
e|------- ------- ------- -------|------- ------- ------- -------|
B|7-------7---------7B8-R-7------|-------------------------------|
G|-------------------------------|7-------7---9---9B11----9P7----|
D|-------------------------------|----7-----------------------9--|
A|-------------------------------|-------------------------------|
E|-------------------------------|-------------------------------|

e|------- ------- ------- -------|------- ------- ------- -------|
B|-------------------------------|-------------------------------|
G|7-------7---------7B8-R-7------|----------------7-------4------|
D|-------------------------------|7---4---5---7-------------7-4--|
A|-------------------------------|-------------------------------|
E|-------------------------------|-------------------------------|




    Verse

e|2------ 2------ 2------ 2------|2------ 2------ 2------ 2------|
B|3-------3-------3-------3------|3-------3-------3-------3------|
G|2-------2-------2-------2------|2-------2-------2-------2------|
D|0-------0-------0-------0------|0-------0-------0-------0------|
A|-------------------------------|-------------------------------|
E|-------------------------------|-------------------------------|
  Tell me that you've got every...thing   you     want
e|------- ------- ------- -------|------- ------- ------- -------|
B|-------------------------------|-------------------------------|
G|-------------------------------|-------------------------------|
D|7------------------------------|-------------------------------|
A|-------------------------------|-------------------------------|
E|-------------------------------|-------------------------------|

e|------- ------- ------- -------|------- ------- ------- -------|
B|-------------------------------|-------------------------------|
G|-------------------------------|-------------------------------|
D|-------------------------------|-------------------------------|
A|5------------------------------|-------------------------------|
E|-------------------------------|-------------------------------|





e|2------ 2------ 2------ 2------|2------ 2------ 2------ 2------|
B|3-------3-------3-------3------|3-------3-------3-------3------|
G|2-------2-------2-------2------|2-------2-------2-------2------|
D|0-------0-------0-------0------|0-------0-------0-------0------|
A|-------------------------------|-------------------------------|
E|-------------------------------|-------------------------------|
  And     your    bird    can     sing    But you don't get   me,



  Em                              G
e|0------ 0------ 0------ 0------|3------ 3------ 3------ 3------|
B|0-------0-------0-------0------|3-------3-------3-------3------|
G|0-------0-------0-------0------|0-------0-------0-------0------|
D|2-------2-------2-------2------|0-------0-------0-------0------|
A|2-------2-------2-------2------|2-------2-------2-------2------|
E|0-------0-------0-------0------|3-------3-------3-------3------|
                                              you don't get 



  D
e|2------ 2------ 2------ 2------|2------ 2------ 2------ 2------|
B|3-------3-------3-------3------|3-------3-------3-------3------|
G|2-------2-------2-------2------|2-------2-------2-------2------|
D|0-------0-------0-------0------|0-------0-------0-------0------|
A|-------------------------------|-------------------------------|
E|-------------------------------|-------------------------------|
          me
e|------- ------- ------- -------|------- ------- ------- -------|
B|-------------------------------|-------------------------------|
G|-------------------------------|------------7---9B11----9-7----|
D|-------------------------------|----7---9-------------------9--|
A|-------------------------------|-------------------------------|
E|-------------------------------|-------------------------------|

e|------- ------- ------- -------|------- ------- ------- -------|
B|-------------------------------|-------------------------------|
G|-------------------------------|----------------7-------4------|
D|-------------------------------|----4---5---7-------------7-4--|
A|-------------------------------|-------------------------------|
E|-------------------------------|-------------------------------|





e|2------ 2------ 2------ 2------|2------ 2------ 2------ 2------|
B|3-------3-------3-------3------|3-------3-------3-------3------|
G|2-------2-------2-------2------|2-------2-------2-------2------|
D|0-------0-------0-------0------|0-------0-------0-------0------|
A|-------------------------------|-------------------------------|
E|-------------------------------|-------------------------------|
  You     say     you've  seen    seven           wonders 
e|------- ------- ------- -------|------- ------- ------- -------|
B|-------------------------------|-------------------------------|
G|-------------------------------|-------------------------------|
D|7------------------------------|-------------------------------|
A|-------------------------------|-------------------------------|
E|-------------------------------|-------------------------------|

e|------- ------- ------- -------|-----
 Comments (click here to add a non-facebook comment)
Home | FAQs | Privacy | Terms | Contact
Top 100 Tab Sites