Give Kudos?
Are you sure you want to give kudos to pjvill?

Add To Songbook?
Are you sure you want to add this song to your songbook?


3,408 bands | 16,377 songs
Search: Register FREE! | Login
Browse Songs:
Browse Bands:
Tool Panel
Discuss This Song

1 2 3 4 5





The Beatles - All I've Got To Do (Tab)
Submitter: pjvill (4) on 11/25/05
Month Views: 5 | Total Views: 1,995
Moderator: EMRLDEYZS | Report This Song?
Song Tools

Comment

Songbook

Kudos

Show Chords

Print

-------------------------------------------------------------------


  THE BEATLES - ALL I'VE GOT TO DO (Lennon/McCartney) From WITH THE 
                BEATLES album. Released on 22nd November 1963.

-------------------------------------------------------------------

  Tabbed by:PJVillanueva







Whenever I want you around, yeah.
All I gotta do,
Is call you on the phone,
And you'll come running home,
Yeah, that's all I gotta do.

And when I, I want to kiss you, yeah.
All I gotta do,
Is whisper in your ear
The words you long to hear,
And I'll be kissin' you.

And the same goes for me,
Whenever you want me at all.
I'll be here, yes I will, whenever you call.
You just gotta call on me, yeah,
You just gotta call on me.

And when I, I want to kiss you, yeah.
All I gotta do,
Is call you on the phone,
And you'll come running home,
Yeah, that's all I gotta do.

And the same goes for me,
Whenever you want me at all.
I'll be here, yes I will, whenever you call.
You just gotta call on me, yeah,
You just gotta call on me.

Mmmmmmmmmmmmmmmmmm......



                                 (.     
                              E+5sus4add9
e|------- ------- ------- -------|5------ ------- ------- -------|
B|-------------------------------|7------------------------------|
G|-------------------------------|5------------------------------|
D|-------------------------------|6------------------------------|
A|----------------------------7--|-------------------------------|
E|-------------------------------|-------------------------------|
                                       ...When....ever        I 
e|------- ------- ------- -------|------- ------- ------- -------|
B|-------------------------------|-------------------------------|
G|-------------------------------|-------------------------------|
D|-------------------------------|-------------------------------|
A|-------------------------------|----------------------------4--|
E|-------------------------------|----------------------------4--|      


          C#m
e|------- 4------ ----4-- ----4--|------- 4------ ----4-- ----4--|
B|--------5-----------5-------5--|--------5-----------5-------5--|
G|--------6-----------6-------6--|--------6-----------6-------6--|
D|--------6-----------6-------6--|--------6-----------6-------6--|
A|--------4-----------4-------4--|--------4-----------4-------4--|
E|-------------------------------|-------------------------------|
                                                  want    you a..
e|------- ------- ------- -------|------- ------- ------- -------|
B|-------------------------------|-------------------------------|
G|-------------------------------|-------------------------------|
D|-------------------------------|-------------------------------|
A|4-----------4------------------|4-----------4------------------|
E|4-----------4------------------|4-----------4------------------|


          E
e|------- 4------ ----4-- ----4--|------- 4------ ----4-- ----4--|
B|--------5-----------5-------5--|--------5-----------5-------5--|
G|--------4-----------4-------4--|--------4-----------4-------4--|
D|--------6-----------6-------6--|--------6-----------6-------6--|
A|--------7-----------7-------7--|--------7-----------7-------7--|
E|-------------------------------|-------------------------------|
  round,  yeah.                                   All I    gotta
e|------- ------- ------- -------|------- ------- ------- -------|
B|-------------------------------|-------------------------------|
G|-------------------------------|-------------------------------|
D|2-----------2------------------|2------------2-----------------|
A|2-----------2------------------|2------------2-----------------|
E|-------------------------------|-------------------------------|


          C#m
e|------- 4------ ----4-- ----4--|------- 4------ ----4-- ----4--|
B|--------5-----------5-------5--|--------5-----------5-------5--|
G|--------6-----------6-------6--|--------6-----------6-------6--|
D|--------6-----------6-------6--|--------6-----------6-------6--|
A|--------4-----------4-------4--|--------4-----------4-------4--|
E|-------------------------------|-------------------------------|
  do                                                  is
e|------- ------- ------- -------|------- ------- ------- -------|
B|-------------------------------|-------------------------------|
G|-------------------------------|-------------------------------|
D|-------------------------------|-------------------------------|
A|4-----------4------------------|4-----------4------------------|
E|4-----------4------------------|4-----------4------------------|
 

  F#m
e|2------ 2---2-- 2---2-- 2---2--|------- 2---2-- ----2-- 2------|
B|2-------2---2---2---2---2---2--|--------2---2-------2---2------|
G|2-------2---2---2---2---2---2--|--------2---2-------2---2------|
D|4-------4---4---4---4---4---4--|--------4---4-------4---4------|
A|4-------4---4---4---4---4---4--|--------4---4-------4---4------|
E|2-------2---2---2---2---2---2--|--------2---2-------2---2------|
  call you on the phone,      and you'll come running home,   yeah

  Am                                      E
e|5------ 5------ ----5-- 5---5--|------- 0---0-- ----0-- 0------|
B|5-------5-----------5---5---5--|--------0---0-------0---0------|
G|5-------5-----------5---5---5--|--------1---1-------1---1------|
D|7-------7-----------7---7---7--|--------2---2-------2---2------|
A|7-------7-----------7---7---7--|--------2---2-------2---2------|
E|5-------5-----------5---5---5--|--------0---0-------0---0------|
     that's  all  I                   gotta  do
e|------- 5------ ----5-- ----5--|------- 4------ ----4-- ----4--|
B|--------5-----------5-------5--|--------5-----------5-------5--|
G|--------5-----------5-------5--|--------4-----------4-------4--|
D|-------------------------------|-------------------------------|
A|-------------------------------|-------------------------------|
E|-------------------------------|-------------------------------|


                                  C#m
e|0------ ------- ------- -------|4------ 4------ 4---4-- 4---4--|
B|0------------------------------|5-------5-------5---5---5---5--|
G|1------------------------------|6-------6-------6---6---6---6--|
D|2------------------------------|6-------6-------6---6---6---6--|
A|2------------------------------|4-------4-------4---4---4---4--|
E|0------------------------------|-------------------------------|
                  And     when I

                                  E
e|4------ 4---4-- ----4-- 4---4--|4------ 4------ ----4-- 4---4--|
B|5-------5---5-------5---5---5--|5-------5-----------5---5---5--|
G|6-------6---6-------6---6---6--|4-------4-----------4---4---4--|
D|6-------6---6-------6---6---6--|6-------6-----------6---6---6--|
A|4-------4---4-------4---4---4--|7-------7-----------7---7---7--|
E|-------------------------------|-------------------------------|
                  I       wanna   kiss    you,    yeah

                                          C#m
e|------- 4------ ----4-- 4---4--|------- 4------ 4---4-- ----4--|
B|--------5-----------5---5---5--|--------5-------5---5-------5--|
G|--------4-----------4---4---4--|--------6-------6---6-------6--|
D|--------6-----------6---6---6--|--------6-------6---6-------6--|
A|--------7-----------7---7---7--|--------4-------4---4-------4--|
E|-------------------------------|-------------------------------|
                  All I   gotta   do

                                  F#m
e|------- 4---4-- ----4-- 4---4--|2------ 2---2-- ----2-- 2---2--|
B|--------5---5-------5---5---5--|2-------2---2-------2---2---2--|
G|--------6---6-------6---6---6--|2-------2---2-------2---2---2--|
D|--------6---6-------6---6---6--|4-------4---4-------4---4---4--|
A|--------4---4-------4-
 Comments (click here to add a non-facebook comment)
Home | FAQs | Privacy | Terms | Contact
Top 100 Tab Sites