Give Kudos?
Are you sure you want to give kudos to eric_steinmetz?

Add To Songbook?
Are you sure you want to add this song to your songbook?


3,408 bands | 16,356 songs
Search: Register FREE! | Login
Browse Songs:
Browse Bands:
Tool Panel
Discuss This Song

1 2 3 4 5





The Beatles - Act Naturally (Tab)
Submitter: eric_steinmetz (23) on 10/1/03
Month Views: 7 | Total Views: 2,921
Moderator: EMRLDEYZS | Report This Song?
Song Tools

Comment

Songbook

Kudos

Show Chords

Print

Act Naturally - written by Morrison & Russell
performed by The Beatles on English release of "Rubber Soul" 1966
Included on both "Yesterday and Today" or "Help" in the USA.

Guitars in Dropped "D" Tuning, tune low "E" to "D"
Intro:
             D                               G
e|-------------------------------------------3----3--3-------------------
B|--------------3---------1-----7---------7--3h5--5--5p3--3--------------
G|--0--------------0--h2-----------7--h9------------------4--0-----------
D|-----4--2--0---------------0-------------------------------------------
A|------------------------------------------------------------------7\5--
D|--------------------------------------------------------------/9-------


Verse:
  G                           C
They're gonna...
  G                                  D
They're gonna...
  G                                              C
They'll make...
     D                        G
And all I...


Middle:
        D                      G
Well I bet...
         D                           G
I might win...
      D                         G
The movies...
     A                       D
'Cos I can...

Guitar Solo 2x
             D                         G
e|-----------------------------------------------------------------------
B|-----------------------------------------------------------------------
G|-----------------------------------------------------------------------
D|--------------0------------0---------5--5------------------------------
A|---------------------3------------3--------b(7)5-----------------------
D|--5--4--2--0-----/7-----0-----/7------------------7b(9)--5-------------

Coda:
             D                          G
e|-----------------------------------------------------------------------
B|-----------------------------------------------------------------------
G|-----------------------------------------------------------------------
D|--------------0------------4-------4--5--5-----------------------------
A|---------------------3--------5/7-----------b(7)5----------------------
D|--5--4--2--0-----/7-----0--------------------------7b(9)--5------------
============================================================
Assorted guitar licks:

   They're gonna put...
e|-----3----3------------------------------------------------------------
B|-----0----0----------------------1---------------1---------------------
G|-----0----0----------------------0---------0-----0---------0-----------
D|-------------------0----------------0--h2-----------0--h2--------------
A|----------------------0---2---3---------------3------------------------
D|--5-------------5------------------------------------------------------

   They're gonna make a big star out of me
e|----------3---------3--------------------------------------------------
B|----------0---------0--------------------------------------------------
G|----------0---------0--------------------0---------0-------------------
D|--------------------------------------------0--h2-----2--0-------------
A|------------------------------------------------------------3--2--0----
D|--5--------------------5---5----4--2--0--------------------------------

   They'll make...
e|--------------3--------3----------3-----------------------------------------
B|--------------0--------0----------0-----------------------------------------
G|--------------0--------0----------0-----------------0-------0--0--0-------0-
D|-------------------------------------------------------0h2-----------0h2----
A|-----------------------------------------0---2---3--------------------------
D|----------5-------------------5---------------------------------------------

   And all I...
e|------------2---------2------------------------------------------------
B|------------3---------3-----------------5--3---------------------------
G|------------2---------2------------2/4--------4--0---------------------
D|------0----------------------------------------------------------------
A|-----------------------------------------------------------------------
D|-----------------------------------------------------------------------

   Well I bet... 
e|-----------------------------------------------------------------------
B|-------------3---3-----------------------------------------------------
G|-------------2---2------------------0-------0--0--0--0-------0---------
D|-------------0---0---------------------0h2--------------0h2------------
A|--------------------------2--4--5--------------------------------------
D|---------0-------------0-----------------------------------------------

   The movies gonna...
e|-----------------------------------------------------------------------
B|-----------------------------------------------------------------------
G|-----------------------------------------------------------------------
D|--------------------------------5-----5-----5-----5-----6-------7------
A|-----------------------------------------------------------------------
D|--------------------0--2--4--5-----5-----5-----5-----6-----7-----------

   I can can play the part so well,
e|-----------------------------------------------------------------------
B|-----------------------------------------------------------------------
G|-----------------------------------------------------------------------
D|---------------------------12------10-----9-----7----------------------
A|-----------------------------------------------------------------------
D|-----------------------12------10------9-----7-------------------------


And - 
e|-----------------------------------------------------------------------
B|-----------------------------------------------------------------------
G|-----------------------------------------------------------------------
D|---------------------------------------------------0-------------------
A|--------------------------------------------0--h2-----2--p0------------
D|-----------------------5----4--2----0--3h4-------------------4--5------

 Comments (click here to add a non-facebook comment)
Home | FAQs | Privacy | Terms | Contact
Top 100 Tab Sites