Give Kudos?
Are you sure you want to give kudos to eric_steinmetz?

Add To Songbook?
Are you sure you want to add this song to your songbook?


3,408 bands | 16,356 songs
Search: Register FREE! | Login
Browse Songs:
Browse Bands:
Tool Panel
Discuss This Song

1 2 3 4 5





The Beatles - Act Naturally (Chord)
Submitter: eric_steinmetz (23) on 10/1/03
Month Views: 13 | Total Views: 3,702
Moderator: EMRLDEYZS | Report This Song?
Song Tools

Comment

Songbook

Kudos

Show Chords

Print

Act Naturally - written by Morrison & Russell
performed by The Beatles on "Rubber Soul" 1966

Guitars in Dropped "D" Tuning, tune low "E" to "D"
Intro:
             D                               G
e|-------------------------------------------3----3--3-------------------
B|--------------3---------1-----7---------7--3h5--5--5p3--3--------------
G|--0--------------0--h2-----------7--h9------------------4--0-----------
D|-----4--2--0---------------0-------------------------------------------
A|------------------------------------------------------------------7\5--
D|--------------------------------------------------------------/9-------

Verse:
  G                           C
They're gonna put me in the movies
  G                                  D
They're gonna make a big star out of me
  G                                              C
They'll make a film about a man that's sad and lonely
     D                        G
And all I gotta do is Act Naturally.


Middle:
        D                      G
Well I bet you I'm gonna be a big star
         D                           G
I might win an Oscar  You can never tell
      D                         G
The movies gonna make me a big star
     A                       D
'Cos I can play the part so well.


Verse:
We'll make a film about a man that's sad and lonely
And begging down upon his bended knee
I'll play the part  But I won't need rehearsin' 
Cos all I gotta do is Act Naturally.


Guitar Solo (play this twice):
             D                         G
e|-----------------------------------------------------------------------
B|-----------------------------------------------------------------------
G|-----------------------------------------------------------------------
D|--------------0------------0---------5--5------------------------------
A|---------------------3------------3--------b(7)5-----------------------
D|--5--4--2--0-----/7-----0-----/7------------------7b(9)--5-------------


Well I bet you I'm gonna be a big star
I might win an Oscar  You can never tell
The movies gonna make me a big star
'Cos I can play the part so well.

Well I hope you come and see me in the movies
Then I know that you will plainly see
The biggest fool that ever hit the big time
And all I gotta do is Act Naturally.

 
Middle:
        D                      G
Well I bet you I', gonna be a big star
         D                           G
I might win an Oscar, you can never tell
      D                         G
The movies gonna make a big star ...
     A                       D
'Cos I can play the part so well.

Well I hope you come and see me in the movies
Then I know that you will plainly see
The biggest fool that ever hit the big time
And all I gotta do is Act Naturally.

And - 
e|-----------------------------------------------------------------------
B|-----------------------------------------------------------------------
G|-----------------------------------------------------------------------
D|---------------------------------------------------0-------------------
A|--------------------------------------------0--h2-----2--p0------------
D|-----------------------5----4--2----0--3h4-------------------4--5------

-------------------------------------------------------------------------
 
 Comments (click here to add a non-facebook comment)
Home | FAQs | Privacy | Terms | Contact
Top 100 Tab Sites