Give Kudos?
Are you sure you want to give kudos to pjvill?

Add To Songbook?
Are you sure you want to add this song to your songbook?


3,412 bands | 16,391 songs
Search: Register FREE! | Login
Browse Songs:
Browse Bands:
Tool Panel
Discuss This Song

1 2 3 4 5





The Beatles - Act Naturally 2 (Tab)
Submitter: pjvill (3) on 11/25/05
Month Views: 5 | Total Views: 2,131
Moderator: EMRLDEYZS | Report This Song?
Song Tools

Comment

Songbook

Kudos

Show Chords

Print

-------------------------------------------------------------------


  THE BEATLES - ACT NATURALLY (Morrison/Russell) From HELP album.
                Released on August 6th 1965.


-------------------------------------------------------------------

  Tabbed by:PJVillanueva





They're gonna put me in the movies
They're gonna make a big star out of me
We'll make a film about a man that's sad and lonely
And all I gotta so is act naturally

Well, I'll bet you I'm gonna be a big star
Might win an Oscar you can never tell
The movies gonna make me a big star
'Cause I can play the part so well

Well I hope you come and see me in the movies
Then I know that you will plainly see
The biggest fool that ever hit the big time
And all I gotta do is act naturally



We'll make the scene about a man that's sad and lonely
And beggin down upon his bended knee
I'll play the part but I won't need rehearsal
All I gotta do is act naturally

Well, I'll bet you I'm gonna be a big star
Might win an Oscar you can never tell
The movies gonna make me a big star
'Cause I can play the part so well

Well I hope you come and see me in the movies
Then I know that you will plainly see
The biggest fool that ever hit the big time
And all I gotta do is act naturally



Tune solo guitar low E string to D.

                                    
  
 
e|------ ------ ------ ------|------ ------ ------ ------|
B|---------------------------|---------------------------|
G|---------------------------|-------0-------------------|
D|---------------------------|--------------4------2-----|
A|---------------------------|---------------------------|
D|---------------------------|---------------------------|


  D
e|2----- 2----- 2----- ------|2----- ------ 2----- ------|
B|3------3------3------------|3-------------3------------|
G|2------2------2------------|2-------------2------------|
D|0------0------0------------|0-------------0------------|
A|---------------------------|---------------------------|
E|---------------------------|---------------------------|
 
e|------ ------ ------ ------|------ 2----- ----2- ------|
B|-------3----------1--------|------------3H5------------|
G|-----------0--2------------|---------------------------|
D|0--------------------------|0--------------------------|
A|---------------------------|---------------------------|
D|---------------------------|---------------------------|



  G
e|3----- 3----- 3----- 3-----|------ 3----- ----3- 3-----|
B|3------3------3------3-----|-------3----------3--3-----|
G|0------0------0------0-----|-------0----------0--0-----|
D|0------0------0------0-----|-------0----------0--0-----|
A|2------2------2------2-----|-------2----------2--2-----|
E|3------3------3------3-----|-------3----------3--3-----|
 
e|3----- 3----- 3----- ------|------ ------ ------ ------|
B|3-B-5--5------5-R-3--------|---------------------------|
G|---------------------4-----|---------------------------|
D|---------------------------|5--------------------------|
A|---------------------------|------------------7\-5-----|
D|---------------------------|-----------7/-9------------|  




e|3----- ------ 3----- ----3-|3----- 3----- 3---3- 3-----|
B|3-------------3----------3-|3------3------3---3--3-----|
G|0-------------0----------0-|0------0------0---0--0-----|
D|0-------------0----------0-|0------0------0---0--0-----|
A|2-------------2----------2-|2------2------2---2--2-----|
E|3-------------3----------3-|3------3------3---3--3-----|
  They're              gonna  put    me     in     the mo..
e|------ ------ ------ ------|------ ------ ------ ------|
B|---------------------------|---------------------------|
G|---------------------------|---------------------------|
D|5--------------------------|---------------------------|
A|---------------------------|---------------------------|
D|---------------------------|---------------------------|



  C
e|0----- 0----- 0---0- 0---0-|0----- 0----- 0---0- 0-----|
B|1------1------1---1--1---1-|1------1------1---1--1-----|
G|0------0------0---0--0---0-|0------0------0---0--0-----|
D|2------2------2---2--2---2-|2------2------2---2--2-----|
A|3------3------3---3--3---3-|3------3------3---3--3-----|
E|---------------------------|---------------------------|
  .......vies
e|------ ------ ------ ------|------ ------ ------ ------|
B|---------------------------|---------------------------|
G|-----------0--0----------0-|-------------------------0-|
D|--------------0H2----------|--------------0H2----------|
A|5--------------------------|5--------------------------|
D|---------------------------|---------------------------|



  G 
e|3----- 3----- 3----- 3-----|3----- 3---3- 3----- 3-----|
B|3------3------3------3-----|3------3---3--3------3-----|
G|0------0------0------0-----|0------0---0--0------0-----|
D|0------0------0------0-----|0------0---0--0------0-----|
A|2------2------2------2-----|2------2---2--2------2-----|
E|3------3------3------3-----|3------3---3--3------3-----|
  They're gonna make   a  big        star  out  of
e|------ ------ ------ ------|------ ------ ------ ------|
B|---------------------------|---------------------------|
G|---------------------------|0--------------------------|
D|---------------------------|---------------------------|
A|---------------------------|---------------------------|
D|5--------------------------|---------------------------|    



  D
e|2----- 2----- ------ 2-----|2----- ----2- 2----- 3-----|
B|3------3-------------3-----|3----------3--3------3-----|
G|2------2-------------2-----|2----------2--2------2-----|
D|0------0-------------0-----|0----------0--0------0-----|
A|---------------------------|---------------------------|
E|---------------------------|---------------------------|
  me                                                  We'll
e|------ ------ ------ ------|------ ------ ------ ------|
B|---------------------------|---------------------------|
G|-------0----------0--------|---------------------------|
D|----------0-H-2------------|0--------------------------|
A|---------------------------|---------------------------|
D|---------------------------|---------------------------|

e|------ ------ ------ ------|------ ------ ------ ------|
B|---------------------------|---------------------------|
G|---------------------------|---------------------------|
D|---------------------------|0--------------------------|
A|-------------------0H2-----|--------------2-P-0--------|
D|0-----------2H4------------|---------------------4-----|




  G
e|3----- 3----- 3----- 3-----|3----- 3----- 3----- 3-----|
B|3------3------3------3-----|3------3------3------3-----|
G|0------0------0------0-----|0------0------0------0-----|
D|0------0------0------0-----|0------0------0------0-----|
A|2------2------2------2-----|2------2------2------2-----|
E|3------3------3------3-----|3------3------3------3-----|
  make   a film     about  a  man    who's  sad    and lon'
e|------ ------ ------ ------|------ ------ ------ ------|
B|-------0-------------0-----|---------------------------|
G|---------------------------|---------------------------|
D|--------------0------------|0-------------0------------|
A|---------------------------|---------------------------|
D|5--------------------------|---------------------------|



  C
e|0----- 0----- ------ 0-----|0----- 0----- ------ 0-----|
B|1------1-------------1-----|1------1-------------1-----|
G|0------0-------------0-----|0------0-------------0-----|
D|2------2-------------2-----|2------2-------------2-----|
A|3--------------------------|3--------------------------|
E|--------------3------------|--------------3------------|
  .......ly                                            and
e|------ ------ ------ ------|------ ------ ------ ------|
B|----------------
 Comments (click here to add a non-facebook comment)
Home | FAQs | Privacy | Terms | Contact
Top 100 Tab Sites