Give Kudos?
Are you sure you want to give kudos to pjvill?

Add To Songbook?
Are you sure you want to add this song to your songbook?


3,408 bands | 16,377 songs
Search: Register FREE! | Login
Browse Songs:
Browse Bands:
Tool Panel
Discuss This Song

1 2 3 4 5





The Beatles - Across The Universe (Tab)
Submitter: pjvill (4) on 11/25/05 1 comment
Month Views: 7 | Total Views: 2,810
Moderator: EMRLDEYZS | Report This Song?
Song Tools

Comment

Songbook

Kudos

Show Chords

Print

-----------------------------------------------------------------------

 THE BEATLES - ACROSS THE UNIVERSE (Lennon/McCartney) This version was
               first released on a charity album for the World Wildlife 
               Fund on 12th December 1969. Also released on 9th August 
               1988, as part of THE BEATLES PAST MASTERS VOL 2.

-----------------------------------------------------------------------

  Tabbed by:PJVillanueva






Words are flowing out like 
endless rain into a paper cup 
They slither while they pass 
They slip away across the universe 
Pools of sorrow waves of joy 
Are drifting through my open mind 
Possessing and caressing me 

Jai guru deva om 
Nothing's gonna change my world 
Nothing's gonna change my world 
Nothing's gonna change my world 
Nothing's gonna change my world 

Images of broken light which 
dance before me like a million eyes 
That call me on and on across the universe 
Thoughts meander like a 
restless wind inside a letter box 
they tumble blindly as 
they make their way across the universe 

Jai guru deva om 
Nothing's gonna change my world 
Nothing's gonna change my world 
Nothing's gonna change my world 
Nothing's gonna change my world 

Sounds of laughter shades of life 
are ringing through my open ears 
exciting and inviting me 
Limitless undying love which 
shines around me like a million suns 
It calls me on and on across the universe 

Jai guru deva om 
Nothing's gonna change my world 
Nothing's gonna change my world 
Nothing's gonna change my world 
Nothing's gonna change my world 
Jai guru deva 
Jai guru deva 




  4/4
                                 

e|-------- -------- -------- --------|2-----/- 10------ 9---7--- 5-------|
B|-----------------------------------|-------------------------------7---|
G|-----------------------------------|2-----/--10-------9---7----6-------|
D|-----------------------------------|----0--------0---------------------|
A|-----------------------------------|-----------------------------------|
E|-----------------------------------|-----------------------------------|

e|-------- -------- -------- --------|5------- 10------ -9------ --------|
B|-----------------------------------|7--------10-------10--12---10--12--|
G|-----------------------------------|7--------11-------11--11---11--11--|
D|-----------------------------------|-----------------------------------|
A|-----------------------------------|-----------------------------------|
E|-----------------------------------|-----------------------------------|





  F#m F#sus4 ...                      A   Aadd9 ...            
e|2---2--- 2---2--- 2---2--- 2---2---|-------- -------- -------- --------|
B|2---2----2---2----2---2----2---2---|2---2----2---2----2---2----2---2---|
G|2---4----2---4----2---4----2---4---|2---4----2---4----2---4----2---4---|
D|4---4----4---4----4---4----4---4---|2---2----2---2----2---2----2---2---|
A|-----------------------------------|0---0----0---0----0---0----0---0---|
E|-----------------------------------|-----------------------------------|

e|-------- -------- -------- --------|-------- -------- -------- --------|
B|2---2----2---2----2---2----2---2---w2--w2---w2--w2---w2--w2---w2--w2---|
G|2---4----2---4----2---4----2---4---w2--w4---w2--w4---w2--w4---w2--w4---|
D|4---4----4---4----4---4----4---4---w2--w2---w2--w2---w2--w2---w2--w2---|
A|-----------------------------------|-----------------------------------|
E|-----------------------------------|-----------------------------------|




  D                 Bm                F#m
e|2---2--- 2---2--- 2---2--- 2---2---|2---2-2- 2---2--- 2---2--- 2-------|
B|3---3----3---3----3---3----3---3-x-|2---2-2--2---2----2---2----2---0---|
G|2---2----2---2----4---4----4---4-x-|2---2-2--2---2----2---2----2---0---|
D|0---0----0---0----4---4----4---4-x-|4---4-4--4---4----4---4----4---0---|
A|------------------2---2----2---2---|4---4-4--4---4----4---4----4-------|
E|-----------------------------------|-----------------------------------|
  Words are flying out  like endless  rain  into   a    paper cup    they
ew2--w2---w2--w2---w2-------w2-------w2--w2---w2--w2---w2--w2---w2-------|
Bw3--w3---w3--w3---w3-------w3-------w2--w2---w2--w2---w2--w2---w2--w0---|
Gw2--w2---w2--w2---w4-------w4-------w2--w2---w2--w2---w2--w2---w2--w0---|
D|-----------------------------------|-----------------------------------|
A|-----------------------------------|-----------------------------------|
E|-----------------------------------|-----------------------------------|




  Em7                                 A                          A7
e|0---0-0- 0---0-0- 0---0--- 0-0-0---|0---0--- 0---0--- 0---0--- 3---3---|
B|3---3-3--3---3-3--3---3----3-3-3---|2---2----2---2----2---2----2---2---|
G|0---0-0--0---0-0--0---0----0-0-0---|2---2----2---2----2---2----2---2---|
D|0---0-0--0---0-0--0---0----0-0-0---|2---2----2---2----2---2----2---2---|
A|2---2-2--2---2-2--2---2----2-2-2---|0---0----0---0----0---0----0---0---|
E|0---0-0--0---0-0--0---0----0-0-0---|-----------------------------------|
 slither  while they pass they slip away  across   the  Universe
ew0--w0---w0--w0---w0-------w0-------w0------- -------- -------- --------|
Bw3--w3---w3--w3---w3-------w3-------w2----------------------------------|
Gw0--w0---w0--w0---w0-------w0-------w2----------------------------------|
Dw2--w2---w2--w2---w2-------w2-------w2----------------------------------|
A|-----------------------------------|-----------------------------------|
E|-----------------------------------|-----------------------------------|






e|3---3---|
B|2---2---|
G|2---2---|
D|2---2---|
A|0---0---|
E|--------|





  D                 Bm                F#m
e|2---2--- 2---2--- 2---2-2- 2---2-2-|2---2--- 2-2-2--- 2-2-2--- 2-------|
B|3---3----3---3----3---3-3--3---3-3-|2---2----2-2-2----2-2-2----2---0---|
G|2---2----2---2----4---4-4--4---4-4-|2---2----2-2-2----2-2-2----2---0---|
D|0---0----0---0----4---4-4--4---4-4-|4---4----4-4-4----4-4-4----4---0---|
A|------------------2---2-2--2---2-2-|4---4----4-4-4----4-4-4----4-------|
E|-----------------------------------|-----------------------------------|
  Pools of sorrow  waves of joy  Are  drifting through my open mind  Pos...
e|--w10--- -------- --w10--- --------|-------- -------- -------- --------|
B|--w-7---------------w-7------------|-----------------------------------|
G|--w-7---------------w-7------------|-----------------------------------|
D|-----------------------------------|-----------------------------------|
A|-----------------------------------|-----------------------------------|
E|-----------------------------------|-----------------------------------|




  Em7               Gm
e|0---0--- 0---0--- 3---3-3- 3-3-3-3-|3---3--- 3-------|
B|3---3----3---3----3---3-3--3-3-3-3-|3---3----3-------|
G|0---0----0---0----3---3-3--3-3-3-3-|3---3----3-------|
D|0---0----0---0----5---5-5--5-5-5-5-|5---5----5-------|
A|2---2----2---2----5---5-5--5-5-5-5-|5---5----5-------|
E|-----------------------------------|-----------------|
  sessing  and caressing me 
e|-------- -------- -------- --------w3--w3---w3--w2---|  
B|-----------------------------------w3--w3---w3--w3---|
G|-----------------------------------w3--w3---w3--w2---|
D|-----------------------------------|-----------------|
A|-----------------------------------|-----------------|
E|-----------------------------------|-----------------|



  
  D
e|2---2--- 2---2--- 2---2--- 2---2---|2---2--- 2---2--- 2------- 2---2---|
B|3---3----3---3----3---3----3---3---|3---3----3---3----3---3----3---3---|
G|2---2----2---2----2---2----2---2---|2---2----2---2----2---2----2---2---|
D|0---0----0---0----0---0----0---0---|0---0----0---0----0---0----0---0---|
A|-------------0----0---0----0---0---|0---0----0---0----0---0----0---0---|
E
 Comments (click here to add a non-facebook comment)
W3 ? is that a bend..... hammer on..... pull off... slide WTF
-DougNiles | 2/1/2012
Home | FAQs | Privacy | Terms | Contact
Top 100 Tab Sites