Give Kudos?
Are you sure you want to give kudos to pjvill?

Add To Songbook?
Are you sure you want to add this song to your songbook?


3,391 bands | 16,216 songs
Search: Register FREE! | Login
Browse Songs:
Browse Bands:
Tool Panel
Discuss This Song

1 2 3 4 5





The Beatles - A Taste Of Honey (Tab)
Submitter: pjvill (5) on 11/25/05
Month Views: 12 | Total Views: 2,831
Moderator: EMRLDEYZS | Report This Song?
Song Tools

Comment

Songbook

Kudos

Show Chords

Print

----------------------------------------------------------------------


  THE BEATLES - A TASTE OF HONEY (Scott/Marlow) From PLEASE, PLEASE ME
                album. Released on 22nd March 1963.


----------------------------------------------------------------------

  Tabbed by:PJVillanueva





A taste of honey... tasting much sweeter than wine.

I dream of your first kiss, and then,
I feel upon my lips again,
A taste of honey... tasting much sweeter than wine.

I will return, yes I will return,
I'll come back for the honey and you.

Yours was the kiss that awoke my heart,
There lingers still, 'though we're far apart,
That taste of honey... tasting much sweeter than wine.

I will return, yes I will return,
I'll come back (he'll come back) for the honey (for the honey) and you.




       
9/8 Time

             
                       (.
                       F#m   
e|------ ------ ------|2----- ------ ------|------ ------ ------|
B|--------------------|2-------------------|--------------------|
G|--------------------|2-------------------|--------------------|
D|--------------------|4-------------------|--------------------|
A|--------------------|4-------------------|--------------------|
E|------------------2-|--------------------|--------------------|
                                  A taste of honey
                                 (A taste of honey)

  A                    E                    F#m
e|------ ------ ------|------ ------ ------|2----- 2----- 2-----|
B|2-------------------|0-------------------|2------2------2-----|
G|2-------------------|1-------------------|2------2------2-----|
D|2-------------------|2-------------------|4------4------4-----|
A|0-------------------|2-------------------|4------4------4-----|
E|--------------------|0-------------------|2------2------2-----|
  Tasting       much sweeter         than   wine
                                                       Do do mm


e|------ 2----- 2-----|2----- 2----- 2-----|2----- 2----- 2-----|
B|-------2------2-----|2------2------2-----|2------2------2-----|
G|-------2------2-----|2------2------2-----|2------2------2-----|
D|-------4------4-----|4------4------4-----|4------4------4-----|
A|-------4------4-----|4------4------4-----|4------4------4-----|
E|-------2------2-----|2------2------2-----|2------2------2-----| 
                                                         I
  do                              Do do mm  do)
e|------ ------ ------|------ ------ ------|------ ------ ------|
B|--------------------|--------------------|--------------------|
G|--------------------|--------------------|--------------6-----|
D|--------------------|--------------------|------------------7-|
A|--------------------|--------------------|--------------------|
E|--------------------|--------------------|--------------------|
     


  F#m                  F+5                  A
e|------ 2----- ------|------ 1----- ------|------ 0----- ------|
B|----2---------------|----2---------------|----2---------------|
G|--2-----------------|--2-----------------|--2-----------------|
D|4-------------------|3-------------------|2-------------------|
A|--------------------|--------------------|--------------------|
E|--------------------|--------------------|--------------------|
  dream         of     your          first  kiss          and then
e|------ ------ ------|------ ------ ------|------ ------ ------|
B|--------------------|--------------------|--------------------|
G|--------------6-----|--------------6-----|--------------8-----|
D|------------------7-|------------------7-|------------------9-|
A|9-------------------|8-------------------|7-------------------|
E|--------------------|--------------------|--------------------|



  B                    F#m                  F+5
e|------ ------ ------|------ 2----- ------|------ 1----- ------|
B|-------4------------|----2---------------|----2---------------|
G|----4---------------|--2-----------------|--2-----------------|
D|--4-----------------|4-------------------|3-------------------|
A|2-------------------|--------------------|--------------------|
E|--------------------|--------------------|--------------------|
                I      feel          upon                 my
e|------ ------ ------|------ ------ ------|------ ------ ------|
B|--------------------|--------------------|--------------------|
G|--------------6-----|--------------6-----|--------------6-----|
D|------------------7-|------------------7-|------------------7-|
A|9-------------------|9-------------------|8-------------------|
E|--------------------|--------------------|--------------------|



  A                    B                    F#m
e|------ 0----- ------|------ ------ ------|2----- 2----- 2-----|
B|----2---------------|-------4------------|2------2------2-----|
G|--2-----------------|----4---------------|2------2------2-----|
D|2-------------------|--4-----------------|4------4------4-----|
A|--------------------|2-------------------|4------4------4-----|
E|--------------------|--------------------|2------2------2-----|
  lips          again             a taste of honey
                                                      (A taste of
e|------ ------ ------|------ ------ ------|------ ------ ------|
B|--------------------|--------------------|--------------------|
G|--------------8-----|--------------------|--------------------|
D|------------------9-|--------------------|--------------------|
A|7-------------------|9-------------------|--------------------|
E|--------------------|--------------------|--------------------|



                       A                    E
e|------ 2----- 2-----|------ ------ ------|------ ------ ------|
B|-------2------2-----|2-------------------|0-------------------|
G|-------2------2-----|2-------------------|1-------------------|
D|-------4------4-----|2-------------------|2-------------------|
A|-------4------4-----|0-------------------|2-------------------|
E|-------2------2-----|--------------------|0-------------------|
                       Tasting      much sweeter          than
  honey)
         F#m Bm        F#m                             Bm
e|------ 2---2- 2---2-|2----- 2---2- 2---2-|2----- 2---2- 2---2-|
B|-------2---3--3---3-|2------2---2--2---2-|2------2---3--3---3-|
G|-------2---4--4---4-|2------2---2--2---2-|2------2---4--4---4-|
D|-------4---4--4---4-|4------4---4--4---4-|4------4---4--4---4-|
A|-------4---2--2---2-|4------4---4--4---4-|4------4---2--2---2-|
E|-------2------------|2------2---2--2---2-|2------2------------|
  wine


  F#m
e|2----- ------ ------|
B|2-------------------|
G|2-------------------|
D|4-------------------|
A|4-------------------|
E|2-------------------|
             Oh, I will


4/4 Time

      A                           B
e|----0- ----0- ----0- ----0-|----2- ----2- ----2- ----2-|
B|----2------2------2------2-|----4------4------4------4-|
G|----2------2------2------2-|----4------4------4------4-|
D|----2------2------2------2-|----4------4------4------4-|
A|----0------0------0------0-|----2------2------2------2-|
E|---------------------------|---------------------------|
                       return,                     Yes I
e|----5- ------ ------ ------|------ 7----- ----7- ------|
B|--------------5------------|---------------------------|
G|---------------------------|---------------------------|
D|---------------------------|---------------------------|
A|---------------------------|---------------------------|
E|---------------------------|---------------------------|



      F#m                         B
e|----2- ----2- ----2- ----2-|----2- ----2- ----2- ----2-|
B|----2------2------2------2-|----4------4------4------4-|
G|----2------2------2------2-|----4------4------4------4-|
D|----4------4
 Comments (click here to add a non-facebook comment)
Home | FAQs | Privacy | Terms | Contact
Top 100 Tab Sites