Give Kudos?
Are you sure you want to give kudos to microsysinc?

Add To Songbook?
Are you sure you want to add this song to your songbook?


3,408 bands | 16,377 songs
Search: Register FREE! | Login
Browse Songs:
Browse Bands:
Tool Panel
Discuss This Song

1 2 3 4 5





The Beatles - A Hard Day's Night (Tab)
Submitter: microsysinc (33) on 4/26/10 2 comments
Month Views: 12 | Total Views: 3,599
Moderator: EMRLDEYZS | Report This Song?
Song Tools

Comment

Songbook

Kudos

Show Chords

Print

A Hard Day's Night  -  The Beatles

Video:  http://www.youtube.com/watch?v=cD4TAgdS_Xw

Intro
 G7sus4 (or Fadd9)
e--3~~~~|
B--3~~~~|
G--5~~~~|
D--3~~~~|
A--5~~~~|
E--3~~~~|

Verse 1
             G   Cadd9 G                     F              G
It's been a hard day's night,  and I've been working like a dog…
             G   Cadd9 G                   F               G
It's been a hard day's night,  I should be sleeping like a log…
           C                           D    
But when I get home to you, I find the things that you do,
             G     Cadd9  G
will make me fe…el al…right.

Verse 2
You know I work all day,  to get you money to buy you things.
And it's worth it just to hear you say,  you're gonna give me… everything…
So why on earth should I moan,  cause when I get you alone,
you know I fe…el o…kay.

Chorus (w/cowbell)
         Bm     Em                     Bm
When I'm home,  everything seems to be right… 
         G      Em                     C      D
When I'm home,  feeling you holding me tight… tight… yeah…

Repeat Verse 1

Instrumental Solo (2 guitars) – 2 times
   G     G   Bb  C   Bb   C D      C D F  C D F  C D F  C D F  C Bb  G  G
e-------------------------------|--------------------------------------------|
B-------------------------------|--------------------------------------------|
G-------------------------------|--------------------------------------------|
D-------------------------------|----0h3----0h3----0h3----0h3----------------|
A------------1---3---1----3/5---|--3------3------3------3------3p1-----------|
E--3-----3----------------------|------------------------------------3---3---|
|                               |                                            | 
e-------------------------------|----10h13--10h13--10h13--10h13--------------|
B------------11--13--11--13/15--|--13-----13-----13-----13-----13p11---------|
G--12----12---------------------|------------------------------------12--12--|
D-------------------------------|--------------------------------------------|
A-------------------------------|--------------------------------------------|
E-------------------------------|--------------------------------------------|

Bridge
          C                                  D    
So why on earth should I moan,  cause when I get you alone,
           G     Cadd9  G
you know I fe…el o…kay.

Repeat Chorus

Repeat Verse 1

Outro
G                Cadd9  G
You know I fe…el al…right…
G                Cadd9  G
You know I fe…el al…right…

Outro Instrumental – 4 times to fade
   D7sus4          Dm7
e--3---------------1--------------|    
B------1-------1-------1-------1--|
G----------2---------------2------|
D---------------------------------|
A---------------------------------|
E---------------------------------|

Chord Chart
   Bm   C  Cadd9  D D7sus4 Dm7   Em   F    G G7sus4
e--2----0----3----2----3----1----0----1----3----3--|
B--3----1----3----3----1----1----0----1----3----3--|
G--4----0----0----2----2----2----0----2----0----5--|
D--4----2----2----0----0----0----2----3----0----3--|
A--2----3----3-------------------2----3----2----5--|
E--2----3------------------------0----1----3----3--|
 Comments (click here to add a non-facebook comment)
Nice job. KK.
-kraziekhat | 4/26/2010
Another great tab,, very well done!!!!!!
-aussief | 4/27/2010
Home | FAQs | Privacy | Terms | Contact
Top 100 Tab Sites