Give Kudos?
Are you sure you want to give kudos to pjvill?

Add To Songbook?
Are you sure you want to add this song to your songbook?


3,395 bands | 16,291 songs
Search: Register FREE! | Login
Browse Songs:
Browse Bands:
Tool Panel
Discuss This Song

1 2 3 4 5





The Beatles - A Hard Day's Night (Tab)
Submitter: pjvill (5) on 11/25/05
Month Views: 8 | Total Views: 2,977
Moderator: EMRLDEYZS | Report This Song?
Song Tools

Comment

Songbook

Kudos

Show Chords

Print

-----------------------------------------------------------------------
  

  THE BEATLES - A HARD DAY'S NIGHT (Lennon/McCartney) From A HARD DAY'S 
                NIGHT album, Released March 20th 1964.


-----------------------------------------------------------------------

  Tabbed by:PJVillanueva






It's been a hard day's night, and I been working like a dog
It's been a hard day's night, I should be sleeping like a log
But when I get home to you I'll find the things that you do
Will make me feel alright

You know I work all day to get you money to buy you things
And it's worth it just to hear you say you're going to give me everything
So why on earth should I moan, 'cause when I get you alone
You know I feel ok

When I'm home everything seems to be right
When I'm home feeling you holding me tight, tight, yeah

It's been a hard day's night, and I been working like a dog
It's been a hard day's night, I should be sleeping like a log
But when I get home to you I'll find the things that you do
Will make me feel alright

Owwww

So why on earth should I moan, 'cause when I get you alone
You know I feel ok

When I'm home everything seems to be right
When I'm home feeling you holding me tight, tight, yeah

It's been a hard day's night, and I been working like a dog
It's been a hard day's night, I should be sleeping like a log
But when I get home to you I'll find the things that you do
Will make me feel alright

You know I feel alright
You know I feel alright...



     
      e|3--
      B|1--
      G|2--
      D|0--
      A|0--
      E|---


These are the notes I hear in the opening chord.
I think this chord could have the following names, but only D will
match as a dominant (V) to the tonic (I) of the song G. 




        D7sus4               Gadd9sus4 (no 3rd)     F6/9 (no tonic)
              
      e|3--- 4th               e|3-- Tonic            e|3-- 9th
      B|1--- b7th              B|1-- 4th              B|1-- 5th
      G|2--- 5th               G|2-- 9th              G|2-- 3rd
      D|0--- Tonic             D|0-- 5th              D|0-- 6th
      A|0--- 5th               A|0-- 9th              A|0-- 3rd
      E|----                   E|---                  E|---


                                     
  
 (.

  D7sus4
e|3------ ------- ------- -------|------- ------- ------- -------|
B|1------------------------------|-------------------------------|
G|2------------------------------|-------------------------------|
D|0------------------------------|-------------------------------|
A|0------------------------------|-------------------------------|
E|-------------------------------|-------------------------------|
                                                      It's been a

  G               C           G
e|3------ 3------ 3---3-- 3---3--|3------ 3------ 3---3-- 3---3--|
B|3-------3-------1---1---1---3--|3-------3-------3---3---3---3--|
G|0-------0-------0---0---0---0--|0-------0-------0---0---0---0--|
D|0-------0-------2---2---2---0--|0-------0-------0---0---0---0--|
A|2-------2-------3---3---3---2--|2-------2-------2---2---2---2--|
E|3-------3-------------------3--|3-------3-------3---3---3---3--|
  hard            day's       night                  and I've been

e|------- 3------ ----3-- ----3--|----3-- 3------ 3------ 3------|
B|--------3-----------0-------3--|----3---3-------3-------3------|
G|--------0-----------0-------0--|----0---0-------0-------0------|
D|-------------------------------|-------------------------------|
A|-------------------------------|-------------------------------|
E|-------------------------------|-------------------------------|


  F9                              G
e|3------ 3------ 3---3-- 3---3--|3------ 3------ 3---3-- 3---3--|
B|1-------1-------1---1---1---1--|3-------3-------3---3---3---3--|
G|2-------2-------2---2---2---2--|0-------0-------0---0---0---0--|
D|1-------1-------1---1---1---1--|0-------0-------0---0---0---0--|
A|3-------3-------3---3---3---3--|2-------2-------2---2---2---2--|
E|1-------1-------1---1---1---1--|3-------3-------3---3---3---3--|
  working             like a  dog                     It's been a

e|1------ 1------ ----1-- ----1--|3---3-- ----3-- ----3-- ----3--|
B|1-------1-----------1-------1--|3---3-------3-------3-------3--|
G|2-------2-----------2-------2--|0---0-------0-------0-------0--|
D|-------------------------------|-------------------------------|
A|-------------------------------|-------------------------------|
E|-------------------------------|-------------------------------|


  G               C           G
e|3------ 3------ 3---3-- 3---3--|3------ 3------ 3---3-- 3---3--|
B|3-------3-------1---1---1---3--|3-------3-------3---3---3---3--|
G|0-------0-------0---0---0---0--|0-------0-------0---0---0---0--|
D|0-------0-------2---2---2---0--|0-------0-------0---0---0---0--|
A|2-------2-------3---3---3---2--|2-------2-------2---2---2---2--|
E|3-------3-------------------3--|3-------3-------3---3---3---3--|
  hard            day's       night                   I  should be

e|3------ 3------ ----3-- ----3--|------- 3------ 3---3-- 3------|
B|0-------0-----------0-------3--|--------3-------3---3---3------|
G|0-------0-----------0-------0--|--------0-------0---0---0------|
D|-------------------------------|-------------------------------|
A|-------------------------------|-------------------------------|
E|-------------------------------|-------------------------------|


  F9                              G
e|3------ 3------ 3---3-- 3---3--|3------ 3------ 3---3-- 3---3--|
B|1-------1-------1---1---1---1--|3-------3-------3---3---3---3--|
G|2-------2-------2---2---2---2--|0-------0-------0---0---0---0--|
D|1-------1-------1---1---1---1--|0-------0-------0---0---0---0--|
A|3-------3-------3---3---3---3--|2-------2-------2---2---2---2--|
E|1-------1-------1---1---1---1--|3-------3-------3---3---3---3--|
  sleeping            like a  log                     But when I

e|1------ ----1-- ----1-- ----1--|3---3-- ----3-- ----3-- ----3--|
B|1-----------1-------1-------1--|3---3-------3-------3-------3--|
G|2-----------2-------2-------2--|0---0-------0-------0-------0--|
D|-------------------------------|-------------------------------|
A|-------------------------------|-------------------------------|
E|-------------------------------|-------------------------------|


  C                               D
e|0------ 0------ 0---0-- 0---0--|2------ 2------ 2---2-- 2---2--|
B|1-------1-------1---1---1---1--|3-------3-------3---3---3---3--|
G|0-------0-------0---0---0---0--|2-------2-------2---2---2---2--|
D|2-------2-------2---2---2---2--|0-------0-------0---0---0---0--|
A|3-------3-------3---3---3---3--|-------------------------------|
E|3-------3-------3---3---3---3--|-------------------------------|
  get home to you   I'll find the things that you do  will make me

e|------- ----0-- ----0-- ----0--|------- ----2-- ----2-- ----2--|
B|------------1-------1-------1--|------------3-------3-------3--|
G|------------0-------0-------0--|------------2-------2-------2--|
D|-------------------------------|-------------------------------|
A|-------------------------------|-------------------------------|
E|-------------------------------|-------------------------------|


  G               C           G                                    
e|3------ 3------ 3---3-- 3---3--|3------ 3---3-- ----3-- 3---3--|
B|3-------3-------1---1---1---3--|3-------3---3-------3---3---3--|
G|0-------0-------0---0---0---0--|0-------0---2-------2---2---2--|
D|0-------0-------2---2---2---0--|0-------0---0-------0---0---0--|
A|2-------2-------3---3---3---2--|2-------2----------------------|
E|3-------3-------------------3--|3-------3----------------------|
  feel            all.........right                   You know I

e|-
 Comments (click here to add a non-facebook comment)
Home | FAQs | Privacy | Terms | Contact
Top 100 Tab Sites