Give Kudos?
Are you sure you want to give kudos to EMRLDEYZS?

Add To Songbook?
Are you sure you want to add this song to your songbook?


3,380 bands | 16,093 songs
Search: Register FREE! | Login
Browse Songs:
Browse Bands:
Tool Panel
Discuss This Song

1 2 3 4 5





The Band - The Weight (Intro)
Submitter: EMRLDEYZS (155) on 12/14/04
Month Views: 14 | Total Views: 3,376
Moderator: josielittle | Report This Song?
Song Tools

Comment

Songbook

Kudos

Show Chords

Print

E|-----------------------------------|
B|----------------10-----------------|
G|----9---9--9h11-11-9h11-9-9-----9\-|
D|-9h11-(11)----9--9----9---9h11-11\-|
A|-----------------------------------|
E|-----------------------------------|



E|----------------------------|-0-0-0-0-0-0-(0)---0-0-|
B|----------------------------|-2-2-2-2-2-2-(2)-2h3-2-|
G|---------7------------------|-2-2-2-2-2-2-(2)---2-2-|
D|-7h9-7h9-7---7-7-(7)-7----x-|-2-2-2-2-2-2-(2)---2-2-|
A|-------------7-7h=9----9\---|-0-0-0-0-0-0-(0)---0-0-|
E|----------------------------|-----------------------|
 Comments (click here to add a non-facebook comment)
Home | FAQs | Privacy | Terms | Contact
Top 100 Tab Sites