Give Kudos?
Are you sure you want to give kudos to Bundyboy?

Add To Songbook?
Are you sure you want to add this song to your songbook?


3,026 bands | 13,468 songs
Search: Register FREE! | Login
Browse Songs:
Browse Bands:
Tool Panel
Discuss This Song

1 2 3 4 5





T Rex - Jeepster (Chord)
Submitter: Bundyboy (6) on 4/21/09 1 comment
Month Views: 574 | Total Views: 10,912
Help! We need a moderator for this artist. | Report This Song?
Song Tools

Comment

Songbook

Kudos

Show Chords

Print

Jeepster – T Rex
        by Bundyboy.com


A


A              
You're so sweet~     you're so fine~
                        C                 A
I want you all and ev'rything justa to be mine 'cos
          D                          A
you're my babe,       'cos you're my love~ Oh~
G               F#                C    Bm   Bb    A
girl I'm just a jeepster for your love~~~~~~



A
You slide so good~     with bones so fair~
                          C               A
you've got the universe reclining in your hair 'cos 
          D                          A
you're my babe,       'cos you're my love~ Oh~
G               F#                C    Bm    Bb    A
girl I'm just a jeepster for your love~~~~~~



A
Just like a car~      you're pleasing to behold~
                        C           A
I'll call you Jaguar if I may be so bold 'cos
          D                          A
you're my babe,       'cos you're my love~ Oh~
G               F#                C    Bm   Bb    A
girl I'm just a jeepster for your love~~~~~~


Break


    A 
The wild winds blow~  upon your frozen cheeks~
                              C              A
the way you flip your hip it always makes me weak 'cos 
          D                          A
you're my babe,       'cos you're my love~ Oh~
G               F#                C    Bm   Bb   A
girl I'm just a jeepster for your love~~~~~~



A
Your motivation~     is so sweet~
                        C             A
your vibrations are all burning up my feet  'cos
          D                         A
you're my babe,      'cos you're my love~ Oh~
G               F#                C    Bm     
girl I'm just a jeepster for your love~~~I said



G               F#               C    Bm
girl I'm just a vampire for your love~~ I'm gonna
Bb        A
suck you~

A
(ad lib out)


 
 Comments (click here to add a non-facebook comment)
Good job nice and simple. These are the runs that are played.
E--3--3--3---------------------3--3--3--------------------|
B--2--2--2---------------------2--2--2--------------------|
G--2--2--2---------------------2--2--2--------------------|
D--2--2--2---------------------2--2--2--------------------|
A---------------------------------------------------------|
E------------------0--2--4--5-----------------0--2--4--5--|
You're so sweet, You're so fine
and an alternate run down.
E--------------------------------------------------------------3--3--3--|
B--------------------------------------------------------------2--2--2--|
G--------------------------------------------------------------2--2--2--|etc.
D-----5--------------------------------------------------------2--2--2--|
A-----5---------------------------------3--2--1--0----------------------|
E-----3---------------2-----------------------------0--2--4--5----------|
Oh girl I'm just a jeepster for your love

I only added these to supplement a job well done.
Cheers
Laurie
-fishburn | 4/21/2009
Home | FAQs | Privacy | Terms | Contact
Top 100 Tab Sites