Give Kudos?
Are you sure you want to give kudos to aussief?

Add To Songbook?
Are you sure you want to add this song to your songbook?


3,430 bands | 16,491 songs
Search: Register FREE! | Login
Browse Songs:
Browse Bands:
Tool Panel
Discuss This Song

1 2 3 4 5



T Rex - Children Of The Revolution (Tab)
Submitter: aussief (103) on 7/31/11 1 comment
Month Views: 92 | Total Views: 8,536
Help! We need a moderator for this artist. | Report This Song?
Song Tools

Comment

Songbook

Kudos

Show Chords

Print

Words and Music by Marc Bolan

   E    E  Em11 E  Em11 E    Em11 E  Em11 E  Em11 E  Em11 E   G  E
E|--------|------------------|----------------------|--------------|
B|--------|------------------|----------------------|--------------|
G|-1----1-|-0--1----0--1-----|-0--1----0--1----0--1-|-0--1----0--1-|
D|-2----2-|-0--2----0--2-----|-0--2----0--2----0--2-|-0--2----0--2-|
A|-2----2-|-0--2----0--2-----|-0--2----0--2----0--2-|-0--2----2--2-|
E|-0----0-|-0--0----0--0-----|-0--0----0--0----0--0-|-0--0----3--0-|
                                                            Yeah!!

   E    E Em11 E   Em11 E    Em11 E  Em11 E  Em11 E Em11 E    G  E
E|--------|------------------|----------------------|---------3----|
B|-5----5-|-3--5----3--5-----|-3--5----3--5----3--5-|-3--5-------5-|
G|--------|------------------|----------------------|--------------|
D|--------|------------------|----------------------|--------------|
A|--------|------------------|----------------------|--------------|
E|--------|------------------|----------------------|--------------|

             E                Em11 E  Em11 E
Well you can bump and grind
             E                Em11 E  Em11 E
If it's good for your mind
             E                Em11 E  Em11 E
Well you can twist and shout
            E
Let it all hang out
        G               C                  Am
But you won't fool the children of the revolution
        G               C                  Am
No you won't fool the children of the revolution
      E
No no no
              E           Em11 E  Em11 E
Well you can Terraplane
         E                Em11 E  Em11 E
In the falling rain
          E               Em11 E  Em11 E
I drive a Rolls Royce
           E     
'Cos its good for my voice
        G               C                  Am
But you won't fool the children of the revolution
        G               C                  Am           E
No you won't fool the children of the revolution no  no no

(DRUM BREAK THEN REPEAT INTRO WITH GUITAR BREAK)
        G               C                 Am
No you won't fool the children of the revolution
        G               C                 Am
No you won't fool the children of the revolution
        G               C                 Am
No you won`t fool the children of the revolution
(Spoken)
No way!
(REPEAT INTRO)

An F. K. Tab,,, Enjoy!!!!!!!


 Comments (click here to add a non-facebook comment)
Nice job. KK.
-kraziekhat | 8/1/2011
Home | FAQs | Privacy | Terms | Contact
Top 100 Tab Sites