Give Kudos?
Are you sure you want to give kudos to alblues?

Add To Songbook?
Are you sure you want to add this song to your songbook?


3,050 bands | 13,603 songs
Search: Register FREE! | Login
Browse Songs:
Browse Bands:
Tool Panel
Discuss This Song

1 2 3 4 5





THE GROUPIES - Primitive (Tab)
Submitter: alblues (25) on 9/25/12 1 comment
Month Views: 67 | Total Views: 1,546
Help! We need a moderator for this artist. | Report This Song?
Song Tools

Comment

Songbook

Kudos

Show Chords

Print

THE  GROUPIES   PRIMITIVE

SEP 18 2012

YULEE FLORIDA  U.S.A.

GARAGE 1960S  PUNK


TAB  ALBERT FISHER  AKA ALBLUES









MY VERSION


INTRO


F RIFF-1


-1--------------------------------------------2X
-1--4-----------------------------------------
-------3-/-5---5-3-1--------------------------
----------------------3--1--3-----------------
----------------------------------------------
----------------------------------------------G-2


BASS/\AND RIFF -1  ETC ETC

-----------------------------------------------G-3
-----------------------------------------------
-----------------------------------------------
-----------------------------------------------
----------1------------------------------------
--1----4------4---1----------------------------


------------------------------------------------GU-1
-------------------------------------------------
-------------------------------------------------
------------/------------------------------------
----1----1B/--1-----1---------------1B/----------
-1----------------4---1------1---4------4---1----



             F

-------------------------------------------
--------------------------------------------
--------------------------------------------
--------------------------------------------
-1-1B/-1-----1--------------------------------
----------4----1------------------------------

            WHAT I DONT NO   CANT EVER HURT ME


I LIVE A LIFE  THAT WAS BE FOR ME


WHAT I RESPECT    YOU JUST CANT   SEE


WHAT  YOU EXPECT    ILL NEVER BE



        FILL A

PRIMITIVE


FILL-A

----------------
----------------
---3--1-------------
-3------3--1--3---------
-------------------
--------------------



        THATS  HOW  I LIVE

-----------------------------------------------
---------4-6---4--6-----------1----------------
---1-3-5--------------------3---1--------------
-3---------------------------------3-1--3-------
-----------------------------------------------
-----------------------------------------------

               PRIMITIVE

-------------------------------
------------4-6----4-----------
----1--3--5--------------------
--3----------------------------
-------------------------------
-------------------------------


------------------------------
----1-------------------------
-3----1-----------------------
--------3-1-3-----------------
------------------------------
------------------------------


I TAKE WHAT YOU GIVE


-----------1------1--------------------------
---------1-----4-----------------------------
---1--3---------------1--3--1----------------
-3-----------------------------3--1--3-------
---------------------------------------------
---------------------------------------------


                 CUSE  I   LOVE

                          Ab
                            ^ ^ ^ ^ETC  strum
---------------------------4-----
------------4---6--4-------4-----
----1--3--5----------------5-----
-3-------------------------------
---------------------------------
---------------------------------


AND I DO

      Bb
      ^ ^ ^ ^  etc strum
------6------------------------------------
------6------------------------------------
------7------------------------------------
------------------------------------------
------------------------------------------
------------------------------------------


PRIMITIVE

 F

-5----------------------------------------
-6-----------------------------------------
-5------------------------------------------
-------------------------------------------
---------------------------------------------
---------------------------------------------


////////////////////////////////////////////////////////////

 OW  OOOOOOOOOOOOOOOO      RIFF    G

--13---16--------------------------------------------
--13---16--------------------------------------------
0------------15-/-17----15-P-13---13--15--13---------
0--------------------------------------------15--13--
-----------------------------------------------------
-----------------------------------------------------



A H  AAAAAAAAAAAA

-13---16----------------13-----------------------
-13---16-----------------------------------------
--------------15-/-17B--------15--13-------------0 REPEAT END OF  RIFF G
-------------------------------------15--13------0
-------------------------------------------------
-------------------------------------------------


//////////////////////////////////////////////////////////////////

HARP

13----16------------------------------
13----16-------------------------------
----------15B17---15/17----------------
---------------------------------------
---------------------------------------
---------------------------------------


-13---16-----------------------------------
-13---16-----------------------------------
-------------15--/--17----15--13-----------
----------------------------------15---13--
-------------------------------------------
-------------------------------------------


-13---16/----------------16-------------
-13---16/------------16-----18---16-----
-----------------17-----------------17--
----------------------------------------
----------------------------------------
----------------------------------------


------------------------------
-13-----13--------------------
----15B----15--13-------------
------------------15--13--15--
------------------------------
------------------------------



-13---16B-------------------------------
-13---16B-----------------------16--18--
----------------13--15-------17---------
-------------15-------------------------
----------------------------------------
----------------------------------------

            THE THINGS I DO

----------------13--16--13-------------
------------16-------------------------
-13--15B-------------------------------
---------------------------------------
---------------------------------------
---------------------------------------




                          YOU NEVER TRY


-13--16-------------------------------------
-13--16-------------------------------------
-----------16/17----15-13-------------------
--------------------------15--13-15---------
--------------------------------------------
--------------------------------------------

       ~~~                      WHAT I GET FREE

-13---16B---------------13--------------------------
-13-------------------------------------------------
----------------16/17--------15--13------------------
-------------------------------------15--13--15------
-----------------------------------------------------
-----------------------------------------------------


                         YOU GOT TO BUY IT
-13---16--------1-----1--1-1-----------------
-13---16-----1------4----1-1-----------------
---------------------------------------------
---------------------------------------------
---------------------------------------------
---------------------------------------------


                                               IM PROUD OF MY LIFE
-13---16-------------------------------------------16----------
-13---16-----------------------------------------------------
-------------13-H-15---15--13-------------------17-------------
-------------------------------15--13---15-------------------
-------------------------------------------------------------
-------------------------------------------------------------

               DONT ASK ME WHY

---------------------------------
---------------------------------
--16/17---15--13-----------------
-----------------15--13--15------
---------------------------------
---------------------------------


                            CUSE IF I TOLD 
--13---16-------13---------------------------------
--13---16------------------------------------------
-------------17------17----15-13-------------------
---------------------------------15-13--15---------
---------------------------------------------------
---------------------------------------------------


YOU                   I PROBALY
---------------------------------------------
-13--13-----15B--------15--13---15--13-------
-13--13-----15B--------15--13---15--13-------
---------15----------------------------------
---------------------------------------------
---------------------------------------------


                                PRIMITIVE
----13---16--------------------------------------
----13---16--------------------------------------
----------------16/17-----15---13----------------
-----------------------------------15--13---15---
-------------------------------------------------
-------------------------------------------------



                             THATS HOW I LIVE
-13--16----16--------16-------------------------
-13--16----16-----------16----------------------
----------------------------17/15--13-----------
--------------------------------------15--------
------------------------------------------------
------------------------------------------------


                                  PRIMITIVE
-13---16------------------------------------
-13---16-------------------------------------
-------------17--17--17-17--17-17-17-17-17---
---------------------------------------------
---------------------------------------------
---------------------------------------------


                 I TAKE WHAT YOU GIVE
-13---16----------------------------------------
-13---16----------------------------------------
-------------16/17---15--13---------------------
-----------------------------15--13--15---------
------------------------------------------------
-------------------------------------------------




-13--16-------------------------------------------
-13--16-----------------------------------------
----------15--13------------------------------------
-----------------15--13-15-----------------------------
-------------------------------------------------
---------------------------------------------------

Ab                  Bb              F

CUSE I LOVE      AND I DO        PRIMITIVE




RIFF-G  2X


OW OOOO


AH AAAAAA



OW OOOO


AH AAAAA

///////////////////////////

BASS AND RIFF 1


PRIMITIVE      THATS HOW I LIVE




PRIMITIVE  I TAKE I TAKE WHAT YOU GIVE



PRIMITIVE THATS HOW I LIVE



AH  AAAA      AH OOWWOOO  2X


YEAH  PRIMITIVE  THATS  HOW I LIVE



----------------------
----------------------
----------------------
----------------------
--1-------------------
-------4-----1--------




THIS TUNE  HAS A HARP IN IT  AND THE
 BASS JUST POUNDS THE F CHORD ALOT
LOT OF VARATIONS ON THE MAIN RIFF
JUST STAY ON  THE BEAT     





 Comments (click here to add a non-facebook comment)
Great job!!!!!
-aussief | 9/29/2012
Home | FAQs | Privacy | Terms | Contact
Top 100 Tab Sites