Give Kudos?
Are you sure you want to give kudos to Fuse49?

Add To Songbook?
Are you sure you want to add this song to your songbook?


3,422 bands | 16,457 songs
Search: Register FREE! | Login
Browse Songs:
Browse Bands:
Tool Panel
Discuss This Song

1 2 3 4 5



System Of A Down - Radio/video (Solo)
Submitter: Fuse49 (1) on 12/7/08
Month Views: 11 | Total Views: 2,673
Help! We need a moderator for this artist. | Report This Song?
Song Tools

Comment

Songbook

Kudos

Show Chords

Print

Song-Radio/Video (Solo)
Band-System Of A Down
Albim-Mezmerize
Tabbed By:Fuse49

d|------------------------------------------------------------------------------|
a|------------------------------------------------------------------------------|
f|-8-9-8~--8-9-8~--8-9-11--11--11-11-9-8--9-8-6-6~--6-6-4-3~--3-4-6^6--6-4-3^3--|
c|------------------------------------------------------------------------------|
g|------------------------------------------------------------------------------|
c|------------------------------------------------------------------------------|

 
d|-------------------------------------------------------
a|------------------------------------------------------------                   
f|-3-3-3--4-3-1-1-1--4-3-1-1-1--4-3-1-1-1--4-3-1-1-1---6-4-3-3-3--6-4-3-3-3--
c|---------------------------------------------------------------------------
g|---------------------------------------------------------------------------
c|---------------------------------------------------------------------------

 
d|------------------------|
a|------------------------|
f|--6-4-3-3-3--6-4--x2----|
c|------------------------|
g|------------------------|
c|------------------------|




d|-6-6-6--7-6-4-4-4--7-6-4-4-4--7-6-4-4-4--7-6-4-4-4---9-7-6-6-6--9-7-6-6-6------
a|-------------------------------------------------------------------------------
f|-------------------------------------------------------------------------------
c|-------------------------------------------------------------------------------
g|-------------------------------------------------------------------------------
c|-------------------------------------------------------------------------------

d|--9-7-6-6-6--9-7--|
a|------------------|
f|-------------x2---|
c|------------------|
g|------------------|
c|------------------|


 Second part (Tremolo picking)
d|--11-12-12/14--12-11-9-11-11/12-11-9--11-12-12/14--12-11--18-19-21-21^^--|
a|-------------------------------------------------------------------------|
f|-------------------------------------------------------------------------|
c|-------------------------------------------------------------------------|
g|-------------------------------------------------------------------------|
c|-------------------------------------------------------------------------|

 
d|----------------|
a|----------------|
f|----------------| 
c|----------------|
g|--11\\\\\\\\\\--|
c|----------------|
 Comments (click here to add a non-facebook comment)
Home | FAQs | Privacy | Terms | Contact
Top 100 Tab Sites