Give Kudos?
Are you sure you want to give kudos to texasisalive?

Add To Songbook?
Are you sure you want to add this song to your songbook?


3,420 bands | 16,457 songs
Search: Register FREE! | Login
Browse Songs:
Browse Bands:
Tool Panel
Discuss This Song

1 2 3 4 5



Stevie Ray Vaughn - The House Is A Rockin' (Bass)
Submitter: texasisalive (10) on 10/2/03
Month Views: 13 | Total Views: 2,070
Moderator: bigrig1999 | Report This Song?
Song Tools

Comment

Songbook

Kudos

Show Chords

Print

Stevie Ray Vaughan
The House is a Rockin'


4/4
  Gtr I
  Wx5          Q  Q   E  E E  E   E E E E  E  E E  E  E E Q   E  E E  E   E E Q   E  E E  E
|-----------|------------------|--------------------|-------------------|--------------------||
|-----------|-------------7----|-8-8-7-7-------7----|--------------7----|-8-8-7--------7-----||
|-----------|----7--10-10---10-|---------10-10---10-|-----7--10-10---10-|--------10-10---10--||
|-----------|-8----------------|--------------------|-8-8---------------|--------------------||



 Chorus
  $
  E E Q   E  E e E   E E Q   E  E E  E   E E Q   E  E e E   E E E E  E  E E E
|------------------|-------------------|------------------|-------------------|
|--------------7---|-8-8-7--------7----|--------------7---|-8-8-7-7-------7-7-|
|-----7--10-10-----|--------10-10---10-|-----7--10-10-----|---------10-10-----|
|-8-8--------------|-------------------|-8-8--------------|-------------------|


  G                                         C
   E  E Q  E E E  E     E  E Q   E  E E E   E E Q   E  E E E   q  q   E  E E  E
|--------------------|--------------------|------------------|------------------||
|--------------------|--------------------|--------------7---|-8--7--------7----||
|-10-10----5-5-7-(7)-|-10-10--------------|-----7--10-10---x-|-------10-10---10-||
|-------7------------|-------7--10-10-9-9-|-8-8--------------|------------------||



 1st and 2nd Verses
  E E Q   E  E E   E    E E Q   E  E E  E   E E E E  E  E E  E   E E E E  Q  E  E
|---------------------|-------------------|--------------------|------------------|
|--------------7------|-8-8-7--------7----|---------------7----|-8-8-7-7-----7----|
|-----7--10-10---(10)-|--------10-10---10-|-----7-7-10-10---10-|---------10----10-|
|-8-8-----------------|-------------------|-8-8----------------|------------------|


  E E Q   E  E E E   E   E  E E  E  E E  E   E E Q   E  E E  E   E   E  E E  E  E E E
|--------------7-7-|-8------7---------7----|-------------------|----------------------|
|-----7--10-10-----|---(10)-----10-10---10-|--------------7----|-8------7-x-------7---|
|-8-8--------------|-----------------------|-----7--10-10---10-|---(10)-----10-10-----|
|------------------|-----------------------|-8-8---------------|----------------------|


   E  E Q  E E E E    E  E Q  E E E   E    E E E E  E  E E  E   E E E  E   E  E E  E
|------------------|---------------------|--------------------|----------------------||
|------------------|---------------------|---------------7----|-8-8-7-(7)-------7----||
|-10-10------------|-------7--8-8-9-(10)-|-----7-7-10-10---10-|-----------10-10---10-||
|-------7--8-8-9-9-|-10-10---------------|-8-8----------------|----------------------||



 Chorus
  E E Q   E  E E E   E E E E  E  E E  E   E E Q   E  E E   E    E E Q   E  E E E
|------------------|--------------------|---------------------|------------------|
|--------------7---|-8-8-7-7-------7----|--------------7------|-8-8-7--------7---|
|-----7--10-10-----|---------10-10---10-|-----7--10-10---(10)-|--------10-10-----|
|-8-8--------------|--------------------|-8-8-----------------|------------------|


                             To Coda
    E  E Q  E E E E    E  E Q  E E E  E    E  E Q   q  q    E E Q   E  E E  E
|------------------|-------------------|-----------------|-------------------||
|------------------|-------------------|-10-10--------7--|-8-8-7--------7----||
|-10-10------------|-------7--8-8-9h10-|-------7--10-----|--------10-10---10-||
|-------7--8-8-9-9-|-10-10-------------|-----------------|-------------------||


 Piano Solo
  E E Q  E E E E    E  E E E E E E E    E  E Q  E E  E  E   E E Q  E E E E
|----------------|-------------------|--------------------|----------------|
|----------------|-------7-7-8-8-9-9-|-10-10-8--7-7-------|----------------|
|-----7--8-8-9-9-|-10-10-------------|--------------10-10-|-----5--6-6-7-7-|
|-8-8------------|-------------------|--------------------|-8-8------------|


  F                                 C
  E E Q  E E E E   E E Q  E E E E   E E Q  E E E E    E  E Q  E E E E
|----------------|----------------|----------------|------------------|
|----------------|----------------|----------------|-------7--8-8-----|
|-8-8------------|-----5--6-8-----|-----7--8-8-9-9-|-10-10--------8-9-|
|-----5--6-6-7-7-|-8-8--------6s7-|-8-8------------|------------------|


  G
   E  E Q   E  E E E    E  E Q  Q   E   E
|--------------------|---------------------|
|--------------------|---------------------|
|-10-10----------7---|-10-10-8--7----------|
|-------7--10-10---x-|-------------10-(10)-|


  C
  E E E E E E E E    E  E Q  E E E E
|-----------------|------------------||
|-----------------|-------7--8-8-9---||
|-----7-7-8-8-9-9-|-10-10------------||
|-8-8-------------|------------------||


 Guitar Solo
  Q  Q  E E E E    E  E E E E E E E    E  E Q  Q   E  E   E E Q  E E E E
|---------------|-------------------|-------------------|----------------|
|---------------|-------7-7-8-8-9-9-|-10-10-8--7--------|----------------|
|----7--8-8-9-9-|-10-10-------------|-------------10-10-|-----5--6-6-7-7-|
|-8-------------|-------------------|-------------------|-8-8------------|


  F                                     C
  E E E E E E E E    E  E Q  E E  E E    E  E Q  E E  E  E   Q  Q  Q  E  E
|-----------------|-------7--8-8-10-8-|--------------------|----------------|
|-----7-7-8-8-9-9-|-10-10-------------|-10-10-8--7-7-------|----------------|
|-8-8-------------|-------------------|--------------10-10-|----7--8--9-(9)-|
|-----------------|-------------------|--------------------|-8--------------|


  G
   Q   Q   E E  E  E    +E   E  E  E  E E  Q
|--------------------|------------------------|
|--------------------|------------------------|
|-10--10--10-8----10-|-(10)-10-10-10-10-8-----|
|--------------10----|--------------------10--|


   E  E  E  E  E E  Q     E  E  E  E  E E  E  E
|----------------------|------------------------|
|----------------------|------------------------|
|-10-10-10-10-10-8-----|-10-10-10-10-10-8----10-|
|------------------10--|------------------10----|


   E  E  E  E  E E  E  E    +E   E  E  E  E E  E  E
|------------------------|--------------------------|
|------------------------|--------------------------|
|-10-10-10-10-10-8----10-|-(10)-10-10-10-10-8----10-|
|------------------10----|--------------------10----|


   +E   E  E  E  E  E  E  E
|---------------------------|
|---------------------------|
|-(10)-10-10-10-10-10-10-10-|
|---------------------------|


                                                D.S. al Coda
                       C
   E  E Q  E E  E  E   E E E E  E  E E  E   E E E E  E  E E  E
|--------------------|--------------------|--------------------||
|--------------------|---------------7----|-8-8-7-7-------7----||
|-10-10-8--7-7-------|-----7-7-10-10---10-|---------10-10---10-||
|--------------10-10-|-8-8----------------|--------------------||


  &
  C                                      G
  E E Q   E  E E E    E  E E E E E E E    E  E Q   E  E E  E
|------------------|-------------------|---------------------|
|--------------7-x-|-10-10-------------|---------------------|
|-----7--10-10-----|-------7-7-8-8-9-9-|-10-10----------7----|
|-8-8--------------|-------------------|-------7--10-10---10-|


                       N.C.                  DbC9
   E  E Q   E  E E E   E E Q  E E E E    E E E  E  +H        Q   Q  H
|--------------------|----------------|-------------------|--------------*|
|--------------------|----------------|----8-9-10-(10)----|-10\----------*|
|-10-10--------------|-----7--8-8-9-9-|-10----------------|--------------*|
|-------7--10-10-9-9-|-8-8------------|-------------------|--------------*|

 Comments (click here to add a non-facebook comment)
Home | FAQs | Privacy | Terms | Contact
Top 100 Tab Sites