Give Kudos?
Are you sure you want to give kudos to texasisalive?

Add To Songbook?
Are you sure you want to add this song to your songbook?


3,420 bands | 16,457 songs
Search: Register FREE! | Login
Browse Songs:
Browse Bands:
Tool Panel
Discuss This Song

1 2 3 4 5



Stevie Ray Vaughn - Cold Shot (Bass)
Submitter: texasisalive (4) on 10/2/03 1 comment
Month Views: 6 | Total Views: 4,372
Moderator: bigrig1999 | Report This Song?
Song Tools

Comment

Songbook

Kudos

Show Chords

Print

Stevie Ray Vaughan
Cold Shot


|------------------------------------------------------------|
|------------------------------------------------------------|
|----------5--3----------5--3----------5--3----------5--3----|
|-5--3--5-------5--3--5-------5--3--5-------5--3--5-------5--|


  Q  Q  E. S Q  Q  Q  E. S Q  Q  Q  E. S Q  Q  Q  E. S Q  Q  Q
|----------------------------------------------------------------|
|----------------------------------------------------------------|
|-------5--3----------5--3----------5--3----------5--3-----------|
|-3--5-------5--3--5-------5--3--5-------5--3--5-------5--3--5---|


  E. S Q  Q  Q  E. S Q  Q  Q  E. S Q  Q  Q  E. S E W        H..       Q  Q  Q
|--------------------------------------------------------------------------------|
|--------------------------------------------------------------------------------|
|-5--3----------5--3----------5--3----------5--3----------------------5--3--5----|
|------5--3--5-------5--3--5-------5--3--5-------5-------------------------------|


  Q  Q  Q  Q  S S S. Q  Q  Q  E. S Q  Q  Q  E. S Q  Q  Q  Q
|------------------------------------------------------------|
|-3-----------3-------------------------------------------3--|
|----5--3--5----5-3-----------5--3----------5--3-5--3--5-----|
|--------------------5--3--5-------5--3--5-------------------|


                  |---3---|      |--3--|
  Q  Q  Q  S S S. S.. S.. S.. Q  E S.. S.. Q  Q  Q  Q  E. S Q  Q  Q  E. S Q
|----------------------------------------------------------------------------|
|----------3-----------------------------------------------------------------|
|-5--3--5----5-3--------------7------------7-----------5--3----------5--3----|
|-----------------0---0---0------0-0---0------5--3--5-------5--3--5-------5--|


  Q  Q  E. S Q  Q  Q  E. S Q  Q  Q  E. S Q  Q  Q  E. S Q  Q  Q
|----------------------------------------------------------------|
|----------------------------------------------------------------|
|-------5--3----------5--3----------5--3----------5--3-----------|
|-3--5-------5--3--5-------5--3--5-------5--3--5-------5--3--5---|


  E. S Q  Q  Q  E. S Q  Q  Q  E. S Q  Q  Q  E. S E W        H..       Q  Q  Q
|--------------------------------------------------------------------------------|
|--------------------------------------------------------------------------------|
|-5--3----------5--3----------5--3----------5--3----------------------5--3--5----|
|------5--3--5-------5--3--5-------5--3--5-------5-------------------------------|


  Q  Q  Q  Q  S S S. Q  Q  Q  E. S Q  Q  Q  E. S Q  Q  Q  Q
|------------------------------------------------------------|
|-3-----------3-------------------------------------------3--|
|----5--3--5----5-3-----------5--3----------5--3-5--3--5-----|
|--------------------5--3--5-------5--3--5-------------------|


                  |---3---|      |--3--|
  Q  Q  Q  S S S. S.. S.. S.. Q  E S.. S.. Q  Q  Q  Q  E. S Q  Q  Q  E. S Q
|----------------------------------------------------------------------------|
|----------3-----------------------------------------------------------------|
|-5--3--5----5-3--------------7------------7-----------5--3----------5--3----|
|-----------------0---0---0------0-0---0------5--3--5-------5--3--5-------5--|


  Q  Q  E. S Q  Q  Q  E. S Q  Q  Q  E. S Q  Q  Q  E. S E W        Q.   E.
|--------------------------------------------------------------------------|
|----------------------------------------------------------------------7---|
|-------5--3----------5--3----------5--3----------5--3---------------------|
|-3--5-------5--3--5-------5--3--5-------5--3--5-------5-------------------|


  S S S E Q  Q  Q  Q  Q  Q  Q  S S S. Q  Q  Q  E. S Q  Q  Q
|------------------------------------------------------------|
|-7-7-5------------3-----------3-----------------------------|
|-------7-5--3--5-----5--3--5----5-3-----------3--5----------|
|-------------------------------------5--3--5-------5--3--5--|


                                   |---3---|      |--3--|
  E. S Q  Q  Q  Q  Q  Q  Q  S S S. S.. S.. S.. Q  E S.. S.. Q  Q  Q  Q
|-----------------------------------------------------------------------|
|---------------3-----------3-------------------------------------------|
|-5--3-5--3--5-----5--3--5----5-3--------------7------------7-----------|
|----------------------------------0---0---0------0-0---0------5--3--5--|


  E. S Q  Q  Q  E. S Q  Q  Q  E. S Q  Q  Q  E. S Q  Q  Q  E. S Q
|------------------------------------------------------------------|
|------------------------------------------------------------------|
|-5--3----------5--3----------5--3----------5--3----------5--3-----|
|------5--3--5-------5--3--5-------5--3--5-------5--3--5-------5---|


  Q  Q  E. S Q  Q  Q  Q  Q  Q  Q  S S S. Q  Q  Q  E. S Q  Q
|------------------------------------------------------------|
|---------------------3-----------3--------------------------|
|-------5--3-5--3--5-----5--3--5----5-3-----------5--3-------|
|-3--5-----------------------------------5--3--5-------5--3--|


  Q  E. S Q  Q  Q  Q  Q  Q  E. S E. S Q  Q  Q  E. S Q  Q  Q
|-------------------------------------------------------------|
|------------------7------------------------------------------|
|----7--5-7--5--7-----5--3--5--3-5--3----------5--3-----------|
|-5-----------------------------------5--3--5-------5--3--5---|
 Comments (click here to add a non-facebook comment)
No I don't think so. SRV tunes his guitar down a half of a step and is usually between the 5th and 7th frets for verse and between the 10th and 12 th intermitent for chorus
-gdbrown | 4/15/2011
Home | FAQs | Privacy | Terms | Contact
Top 100 Tab Sites