Give Kudos?
Are you sure you want to give kudos to EMRLDEYZS?

Add To Songbook?
Are you sure you want to add this song to your songbook?


3,420 bands | 16,457 songs
Search: Register FREE! | Login
Browse Songs:
Browse Bands:
Tool Panel
Discuss This Song

1 2 3 4 5



Steve Miller Band - Rockin Me (Bass)
Submitter: EMRLDEYZS (51) on 9/4/05
Month Views: 6 | Total Views: 7,374
Moderator: BrianEarlHaines | Report This Song?
Song Tools

Comment

Songbook

Kudos

Show Chords

Print

 Intro       
|----------|-----------------|-------------|----------------------------|
|----------|-----------------|-------------|----------------------------|
|----------|----------7-7-7--|-------------|-5s7-x-5s7-7-7---7-----7-7--|
|-------5--|-7--(7)----------|-7--(7)------|---------------9---9p7------|


|----------------|------------------|-------------|----------------------------|
|----------------|------------------|-------------|----------------------------|
|----------------|------------------|-------------|----------------------------|
|-7--(7)----5-5--|-7--(7)---7-0-0-0-|-7--(7)------|-0-0-0-0-0-0-(0)-0-0-0-0-0--|

                                     1st and 4th Verses                               
|-----------------|----------------||-----------------|-----------------|
|-----------------|----------------||-----------------|-----------------|
|-----2-5---------|-----2-5--------||-----------------|-----------------|
|-2-5------5-5s7--|-2-5------5--6--||-7-7-7-7-7-7-7-7-|-7-7-7-7-7-7-7-7-|


|-----------------|-----------------|-----------------|-----------------|
|-----------------|-----------------|-----------------|-----------------|
|-----------------|-----------------|-----------------|-----------------|
|-5-5-5-5-5-5-5-5-|-5-5-5-5-5-5-5-5-|-0-0-0-0-0-0-0-0-|-0-0-0-0-0-0-0-0-|

                                      2nd and 5th Verses
|-----------------|-----------------||-----------------|-----------------|
|-----------------|-----------------||-----------------|-----------------|
|-----------------|-----------------||-----------------|-----------------|
|-7-7-7-7-7-7-7-7-|-7-7-7-7-7-7-7-7-||-7-7-7-7-7-7-7-7-|-7-7-7-7-7-7-7-0-|


|-----------------|-----------------|-----------------|--------------------|
|-----------------|-----------------|-----------------|--------------------|
|-----------------|-----5---5---5---|---------------7-|-----7---7---7------|
|-5-5-5-5-5-5-5-5-|-5-5---5---5---5-|-0-0-0-0-0-0-0---|-0-0---0---0---5h7--|


                                      1st Chorus
           To Coda
|-----------------|-----------------||-----------------|-----------------|
|-----------------|-----------------||-----------------|-----------------|
|-----------------|-----------------||-----------------|-----------------|
|-7-7-7-7-7-7-7-7-|-7-7-7-7-7-7-7-7-||-7-7-7-7-7-7-7-7-|-7-7-7-7-7-7-7-0-|


|-----------------|-----------------|-----------------|----------------|
|-----------------|-----------------|-----------------|----------------|
|-----------------|-----5-------5---|-----------------|-----7-7-----7--|
|-5-5-5-5-5-5-5-5-|-5-5---5-5-5---5-|-0-0-0-0-0-0-0-0-|-0-0-----0-0----|

                                      3rd Verse
|-----------------|-----------------||-----------------|-----------------|
|-----------------|-----------------||-----------------|-----------------|
|-----------------|-----------------||-----------------|-----------------|
|-7-7-7-7-7-7-7-7-|-7-7-7-7-7-7-7-7-||-6s7-7-7-7-7-7-7-|-7-7-7-7-7-7-7-0-|

 
|-----------------|-----------------|-----------------|--------------------|
|-----------------|-----------------|-----------------|--------------------|
|-----------------|-----------------|-----------------|--------------------|
|-5-5-5-5-5-5-5-5-|-5-5-5-5-5-5-5-5-|-0-0-0-0-0-0-0-0-|-0-0-0-0-0-0-0-5s7--|


|-----------------|-----------------||
|-----------------|-----------------||
|-----------------|-----------------||
|-7-7-7-7-7-7-7-7-|-7-7-7-7-7-7-7-7-||


 2nd Chorus
|-----------------|-------------------------|
|-----------------|-------------------------|
|-----------------|---------------9-10-11---|
|-6s7-7-7-6s7-7-7-|-6s7-7-7-10s11---------0-|

  
|-----------------|---------------------|---------------|--------------------|
|-----------------|---------------------|---------------|---------9-10-11\---|
|-----------------|-----------7-8-9-5s7-|---------------|--------------------|
|-5-5-5-5-4s5-5-5-|-4s5-5-8s9-----------|-0-0-0--0--0-0-|-0-0-0-0----------0-|

                                             Interlude
|-----------------|------------------------||------------------|-------------|
|-----------------|-----------------9-11---||------------------|-------------|
|-----------------|---------9-10-11--------||------------------|-------------|
|-7-7-7-7-7-7-7-7-|-7-10h11--------------0-||-7--(7)---7-0-0-0-|-7--(7)------|

  
|-----------------------------|----------------|------------------|-------------|
|-----------------------------|----------------|------------------|-------------|
|-5s7-7-5s7-(7)-5-7-5-7-7-7-7-|----------------|------------------|-------------|
|-----------------------------|-7--(7)----5-5--|-7--(7)---7-0-0-0-|-7--(7)------|

                                                  D.S. al Coda
|---------------------------|-----------------|----------------|
|---------------------------|-----------------|----------------|
|---------------------------|-----2-5---------|-----2-5--------|
|-0-0-0-0-0-0-(0)-0-0-0-0-0-|-2-5------5-5s7--|-2-5------5--6--|

                    3rd Chorus
|-----------------||-----------------|-----------------|-----------------|
|-----------------||-----------------|-----------------|-----------------|
|---------7---7---||-----------------|---------7---7---|-----------------|
|-7-7-7-7---7---0-||-7-7-7-7-7-7-7-7-|-7-7-7-7---7---0-|-5-5-5-5-5-5-5-5-|


|-----------------|-----------------|-------------------|------------------|
|-----------------|-----------------|-------------------|------------------|
|---------5---5---|-----------------|---------7---7-----|------------------|
|-5-5-5-5---5---5-|-0-0-0-0-0-0-0-0-|-0-0-0-0---0---5s7-|-7-7-7-7-7-7-7-7--|


|----------------|-------------------|-----------------|------------------|
|----------------|-------------------|-----------------|------------------|
|----------------|-------------------|-----7---7-------|------------------|
|-7-7-7-7-7-7-7--|-6s7-7-7-7-7-7-7-7-|-7-7---7---0-7-0-|-5-5-5-5-5-5-5-5--|


|-----------------|-----------------|--------------------|
|-----------------|-----------------|--------------------|
|---------5---5---|-------------7---|-----7---7---7------|
|-5-5-5-5---5---5-|-0-0-0-0-0-0---0-|-0-0---0---0---5s7--|


|-----------------|-----------------|
|-----------------|-----------------|
|-----------------|-----------------|
|-7-7-7-7-7-7-7-7-|-7-7-7-7-7-7-7-7-|
 Comments (click here to add a non-facebook comment)
Home | FAQs | Privacy | Terms | Contact
Top 100 Tab Sites